Deadsy - Commencement Chords & Tabs

 

Commencement Chords & Tabs

Deadsy Chords & Tabs

Version: 1 Type: Tab 0 ratings
1 star 2 stars 3 stars 4 stars 5 stars
comments

Commencement Tab

Artist: Deadsy
Album: Commencement
Song: Commencement

I tabbed this song for a 7 string tuned down half a step : 7A# 6D# 5G# 4C# 3F# 2A# 1D#
If you are without a 7 string the only way you can play it is tuning down to this: 6A# 5F 4A# 3D# 2G 1C

the song is basically two riffs but the main riff is changed/tweeked/added to minutely over and over to throw
you off thoughout the song. in the parts where he is talking there is no guitar but really quiet notes played 
i guess by keyboard... but i couldnt pick them out accurately so heres just the main guitar parts

Main Riff:

4-----4-------5----
5-2---4---4---5--6-
6-2---2---4---3--6-
7-0-------2------4-

the first main guitar part after the first verse goes like this:

4-----4-------5----|-----4-------5----|-----4-------5-4-2--|-----4---------------
5-2---4---4---5--6-|-2---4---4---5--6-|-2---4---4---5-4-2-6|-2---4---4---7--6--2-
6-2---2---4---3--6-|-2---2---4---3--6-|-2---2---4---3-2-0-6|-2---2---4---7--6--2-
7-0-------2------4-|-0-------2------4-|-0-------2---------4|-0-------2---5--4--0-

then after the second, shorter verse, the guitar mixes the first parts riffs up a bit and plays this:

4-----4-------5----|-----4-------5-4-2--|-----4------------|-----4------4-5-4-2---
5-2---4---4---5--6-|-2---4---4---5-4-2-6|-2---4---4---7--6-|-2---4---4--4-5-4-2-6-
6-2---2---4---3--6-|-2---2---4---3-2-0-6|-2---2---4---7--6-|-2---2---4--2-3-2-0-6-
7-0-------2------4-|-0-------2---------4|-0-------2---5--4-|-0-------2----------4-
[ Tab from: http://www.guitartabs.cc/tabs/d/deadsy/commencement_tab.html ]
that riff flows right into this interlude riff that plays about 4 times i think

4----4------5-
5-2--4---4--5-
6-2--2---4--3-
7-0------2----

when the keyboard starts playing it changes slightly, but the keyboard plays the same notes from the last riff
so it can be quite decieving:

4----4------3-
5-2--4---3--3-
6-2--2---3--1-
7-0------1----

after that plays a few times the last chord rings and then:
(s=slide)
4-3---------------------------------------
5-3---------------------------8s-7s-6s-5s-
6-1---------------------------8s-7s-6s-5s-
7-----------------------------6s-5s-4s-3s-

then here is the outro... it varies ALOT here something different almost every time in this song so pay
attention:

4-----4--5-----------|-----4--3-----------|-----4------4-5-4-2--|-----4--3-----------
5-2---4--5--4---7--6-|-2---4--3--4---7--6-|-2---4---4--4-5-4-2-6|-2---4--3--4---7--6-
6-2---2--3--4---7--6-|-2---2--1--4---7--6-|-2---2---4--2-3-2-0-6|-2---2--1--4---7--6-
7-0---------2---5--4-|-0---------2---5--4-|-0-------2----------4|-0---------2---5--4-

then that repeats one more time. im not perfectly positive about the last couple of chords in each part of the
riffs... especially in the outro, because the keyboard part is constantly on and off with the notes, it some-
times goes along with the guitar and other times it doesnt... sounds good but makes it very hard to tab the
guitar... anyhoo there is Commencement by Deadsy one of my fav songs since its mostly instrumental. Enjoy and
feel free to steal it. 





Comments