Deadsy - Brand New Love Chords & Tabs

 

Brand New Love Chords & Tabs

Deadsy Chords & Tabs

Version: 2 Type: Tab 0 ratings
1 star 2 stars 3 stars 4 stars 5 stars
comments

Brand New Love Tab

   
#----------------------------------PLEASE NOTE---------------------------------#
#This file is the author's own work and represents their interpretation of the #
#song. You may only use this file for private study, scholarship, or research. #
#------------------------------------------------------------------------------##

                                 BRAND NEW LOVE
                              As recorded by Deadsy
                       (From the 2002 Album COMMENCEMENT)

Words and Music by Lou Barlow & Eric Gafney
Arranged by Deadsy

          D5                   F#5                  G5                   A5
      0 0 0 x x x          4 4 4 x x x          5 5 5 x x x          7 7 7 x x x

Gtr I (D A D G B E) - 'Philip Exeter Blue I (clean)'
Gtr II (D A D G B E) - 'Dr. Ner (Patch 1)'
Gtr III (D A D G B E) - 'Philip Exeter Blue I (Distorted)'
Gtr IV (D A D G B E) - 'Carlton Megalodon'
Gtr V (D A D G B E) - 'Dr. Ner (Patch 2)'

   Intro
    Moderately Q=105
    D5                 Dsus4
   4/4
    Gtr I
    Q  E E +E  E E E   Q  E E +E  E E E
||--5----5-(5)---5---|-3----3-(3)---3---|
||o----3-------3---3-|----3-------3---3-|
||-------------------|------------------|
||-------------------|------------------|
||o------------------|------------------|
||-------------------|------------------|
|
|   Gtr II
|   W                  W
||--5----------------|-3----------------|
||o-3----------------|-3----------------|
||-------------------|------------------|
||--0----------------|-0----------------|
||o------------------|------------------|
||--0----------------|-0----------------|


  D                  Dsus4
  Q  E E +E  E E E    Q  E E +E  E E E
|-2----2-(2)---2---|--3----3-(3)---3-----||
|----3-------3---3-|-----3-------3---3--o||
|------------------|---------------------||
|------------------|---------------------||
|------------------|--------------------o||
|------------------|---------------------||
|
|                     >
| W                   W
|-2----------------|-22------------------||
|-3----------------|--8-----------------o||
|------------------|--7------------------||
|-0----------------|--0------------------||
|------------------|--------------------o||
|-0----------------|--0------------------||
                      W


   Verse
    D5                 Dsus4
    Q  E E +E  E E E   Q  E E +E  E E E
||--5----5-(5)---5---|-3----3-(3)---3---|
||o----3-------3---3-|----3-------3---3-|
||-------------------|------------------|
||-------------------|------------------|
||o------------------|------------------|
||-------------------|------------------|
|
|   W                  W
||--5----------------|-3----------------|
||o-3----------------|-3----------------|
||-------------------|------------------|
||--0----------------|-0----------------|
||o------------------|------------------|
||--0----------------|-0----------------|


  D                  Dsus4
  Q  E E +E  E E E   Q  E E +E  E E E
|-2----2-(2)---2---|-3----3-(3)---3----||
|----3-------3---3-|----3-------3---3-o||
|------------------|-------------------||
|------------------|-------------------||
|------------------|------------------o||
|------------------|-------------------||
|
| W                  W
|-2----------------|-3-----------------||
|-3----------------|-3----------------o||
|------------------|-------------------||
|-0----------------|-0-----------------||
|------------------|------------------o||
|-0----------------|-0-----------------||


  D5                 Dsus4              D                  Dsus4
  Q  E E +E  E E E   Q  E E +E  E E E   Q  E E +E  E E E    Q  E E +E  E E E
|-5----5-(5)---5---|-3----3-(3)---3---|-2----2-(2)---2---|--3----3-(3)---3----|
|----3-------3---3-|----3-------3---3-|----3-------3---3-|-----3-------3---3--|
|------------------|------------------|------------------|--------------------|
|------------------|------------------|------------------|--------------------|
|------------------|------------------|------------------|--------------------|
|------------------|------------------|------------------|--------------------|
|
|                                                           >
| W                  W                  W                   W
|-5----------------|-3----------------|-2----------------|-22-----------------|
|-3----------------|-3----------------|-3----------------|--8-----------------|
|------------------|------------------|------------------|--7-----------------|
|-0----------------|-0----------------|-0----------------|--0-----------------|
|------------------|------------------|------------------|--------------------|
|-0----------------|-0----------------|-0----------------|--0-----------------|
                                                            W


  D5                 Dsus4              D
  Q  E E +E  E E E   Q  E E +E  E E E   Q  E E +E  E E E
|-5----5-(5)---5---|-3----3-(3)---3---|-2----2-(2)---2---|
|----3-------3---3-|----3-------3---3-|----3-------3---3-|
|------------------|------------------|------------------|
|------------------|------------------|------------------|
|------------------|------------------|------------------|
|------------------|------------------|------------------|
|
| W                  W                  W
|-5----------------|-3----------------|-2----------------|
|-3----------------|-3----------------|-3----------------|
|------------------|------------------|------------------|
|-0----------------|-0----------------|-0----------------|
|------------------|------------------|------------------|
|-0----------------|-0----------------|-0----------------|


  G5
  Gtrs III, IV
  PM--------------------------------|
  E E E E E E E E     E E E E E E E E
|-----------------|---------------------|
|-----------------|---------------------|
|-----------------|---------------------|
|-5-5-5-5-5-5-5-5-|---5-5-5-5-5-5-5-5---|
|-5-5-5-5-5-5-5-5-|---5-5-5-5-5-5-5-5---|
|-5-5-5-5-5-5-5-5-|---5-5-5-5-5-5-5-5---|
|
|                   Gtr V
|                     ~~~
| W                   W
|-3---------------|-/22-----------------|
|-3---------------|---------------------|
|-----------------|---------------------|
|-0---------------|---------------------|
|-----------------|---------------------|
|-0---------------|---------------------|


   Chorus
    D5                  A5                  G5
    Gtrs III, IV
                  PM|                 PM|
    E E E E E E E S S   E E E E E E E S S   E E E E E E E E   E E E E E E E E
||--------------------|-------------------|-----------------|-----------------|
||o-------------------|-------------------|-----------------|-----------------|
||--------------------|-------------------|-----------------|-----------------|
||--0-0-0-0-0-0-0-0-0-|-7-7-7-7-7-7-7-7-7-|-5-5-5-5-5-5-5-5-|-5-5-5-5-5-5-5-5-|
||o-0-0-0-0-0-0-0-0-0-|-7-7-7-7-7-7-7-7-7-|-5-5-5-5-5-5-5-5-|-5-5-5-5-5-5-5-5-|
||--0-0-0-0-0-0-0-0-0-|-7-7-7-7-7-7-7-7-7-|-5-5-5-5-5-5-5-5-|-5-5-5-5-5-5-5-5-|


  D5                      A5
  Gtrs III, IV
   E  E E  E  E E  E  E     E  E  E  E E  E  E E
|-----------------------|------------------------|
|-----------------------|------------------------|
|-----------------------|------------------------|
|--0--0-0--0--0-0--0--0-|---7--7--7--7-7--7--7-7-|
|--0--0-0--0--0-0--0--0-|---7--7--7--7-7--7--7-7-|
|--0--0-0--0--0-0--0--0-|---7--7--7--7-7--7--7-7-|
|
| Gtr V
|  E  Q    Q.      E  E    +Q     E  Q    Q.
|-15-14---12------14-15-|-(15)---14-12---14------|
|-----------------------|------------------------|
|-----------------------|------------------------|
|-----------------------|------------------------|
|-----------------------|------------------------|
|-----------------------|------------------------|


  G5
   E E E E E E E E     E  E E E E E E E
|------------------|----------------------||
|------------------|---------------------o||
|------------------|----------------------||
|--5-5-5-5-5-5-5-5-|---5--5-5-5-5-5-5-5---||
|--5-5-5-5-5-5-5-5-|---5--5-5-5-5-5-5-5--o||
|--5-5-5-5-5-5-5-5-|---5--5-5-5-5-5-5-5---||
|
|  ~~~~~~~~~~~~~~~~~~~~~~~
|  W                  +W
|-10---------------|-(10)-----------------||
|------------------|---------------------o||
|------------------|----------------------||
|------------------|----------------------||
|------------------|---------------------o||
|------------------|----------------------||


 Verse
  D5                 Dsus4              D                  Dsus4
  Gtr I
  Q  E E +E  E E E   Q  E E +E  E E E   Q  E E +E  E E E    Q  E E +E  E E E
|-5----5-(5)---5---|-3----3-(3)---3---|-2----2-(2)---2---|--3----3-(3)---3----|
|----3-------3---3-|----3-------3---3-|----3-------3---3-|-----3-------3---3--|
|------------------|------------------|------------------|--------------------|
|------------------|------------------|------------------|--------------------|
|------------------|------------------|------------------|--------------------|
|------------------|------------------|------------------|--------------------|
|
| Gtr II
| W                  W                  W                   W
|-5----------------|-3----------------|-2----------------|-22-----------------|
|-3----------------|-3----------------|-3----------------|--8-----------------|
|------------------|------------------|------------------|--7-----------------|
|-0----------------|-0----------------|-0----------------|--0-----------------|
|------------------|------------------|------------------|--------------------|
|-0----------------|-0----------------|-0----------------|--0-----------------|
                                                            W


  D                   Dsus4
  Gtrs III, IV
   W                   W
   Q  E E +E  E E E    Q  E E +E  E E E
|--2----2-(2)---2---|--3----3-(3)---3---|
|-----3-------3---3-|-----3-------3---3-|
|-------------------|-------------------|
|-------------------|-------------------|
|-------------------|-------------------|
|-------------------|-------------------|
|
|  <                   <
|  W                   W
|-24----------------|-15----------------|
|--3----------------|--3----------------|
|-------------------|-------------------|
|--0----------------|--0----------------|
|-------------------|-------------------|
|--0----------------|--0----------------|
   W                   W


  D5                  Dsus4           D5G5
   W                    H        Q    E E
                                      | |
                                      / /

   Q  E E +E  E E E     Q   E E +E  E E E
|--5----5-(5)---5---|---3-----3-(3)---3----|
|-----3-------3---3-|-------3-------3---3--|
|-------------------|----------------------|
|-------------------|----------------------|
|-------------------|----------------------|
|-------------------|----------------------|
|
|  <
|  W                    W
|-22----------------|-(22)-----------------|
|--3----------------|---3------------------|
|-------------------|----------------------|
|--0----------------|---0------------------|
|-------------------|----------------------|
|--0----------------|---0------------------|
   W                   +W


  F#5                G5                 A5                 G5
  W                  W                  W                  W
  |                  |                  |                  |
  /                  /                  /                  /

  Q  E E +E  E E E   Q  E E +E  E E E   Q  E E +E  E E E   Q  E E +E  E E E
|-2----2-(2)---2---|-3----3-(3)---3---|-5----5-(5)---5---|-3----3-(3)---3----|
|----3-------3---3-|----3-------3---3-|----3-------3---3-|----3-------3---3--|
|------------------|------------------|------------------|-------------------|
|------------------|------------------|------------------|-------------------|
|------------------|------------------|------------------|-------------------|
|------------------|------------------|------------------|-------------------|
|
| W                  W                  W                  W
|-2----------------|-3----------------|-5----------------|-3-----------------|
|-3----------------|-3----------------|-3----------------|-3-----------------|
|------------------|------------------|------------------|-------------------|
|-0----------------|-0----------------|-0----------------|-0-----------------|
|------------------|------------------|------------------|-------------------|
|------------------|------------------|------------------|-------------------|


  F#5                G5                 A5                 G5           D5G5
  W                  W                  W                  H      +E  E E E
  |                  |                  |                  |       |  | | |
  /                  /                  /                  /       /  / / /

  Q  E E +E  E E E   Q  E E +E  E E E   Q  E E +E  E E E   Q  E E +E  E E E
|-2----2-(2)---2---|-3----3-(3)---3---|-5----5-(5)---5---|-3----3-(3)---3----|
|----3-------3---3-|----3-------3---3-|----3-------3---3-|----3-------3---3--|
|------------------|------------------|------------------|-------------------|
|------------------|------------------|------------------|-------------------|
|------------------|------------------|------------------|-------------------|
|------------------|------------------|------------------|-------------------|
|
| W                  W                  W                  W
|-2----------------|-3----------------|-5----------------|-3-----------------|
|-3----------------|-3----------------|-3----------------|-3-----------------|
|------------------|------------------|------------------|-------------------|
|-0----------------|-0----------------|-0----------------|-0-----------------|
|------------------|------------------|------------------|-------------------|
|------------------|------------------|------------------|-------------------|


  F#5                G5                 A5
  W                  W                  W
  |                  |                  |
  /                  /                  /
[ Tab from: http://www.guitartabs.cc/tabs/d/deadsy/brand_new_love_tab_ver_2.html ]
  Q  E E +E  E E E   Q  E E +E  E E E   Q  E E +E  E E E
|-2----2-(2)---2---|-3----3-(3)---3---|-5----5-(5)---5---|
|----3-------3---3-|----3-------3---3-|----3-------3---3-|
|------------------|------------------|------------------|
|------------------|------------------|------------------|
|------------------|------------------|------------------|
|------------------|------------------|------------------|
|
| W                  W                  W
|-2----------------|-3----------------|-5----------------|
|-3----------------|-3----------------|-3----------------|
|------------------|------------------|------------------|
|-0----------------|-0----------------|-0----------------|
|------------------|------------------|------------------|
|------------------|------------------|------------------|


  G5
  W                   W
  Gtrs III, IV
  PM--------------------------------|
  E E E E E E E E     E E E E E E E E
|-----------------|---------------------|
|-----------------|---------------------|
|-----------------|---------------------|
|-5-5-5-5-5-5-5-5-|---5-5-5-5-5-5-5-5---|
|-5-5-5-5-5-5-5-5-|---5-5-5-5-5-5-5-5---|
|-5-5-5-5-5-5-5-5-|---5-5-5-5-5-5-5-5---|
|
|                   Gtr V
|                     ~~~
| W                   W
|-3---------------|-/22-----------------|
|-3---------------|---------------------|
|-----------------|---------------------|
|-0---------------|---------------------|
|-----------------|---------------------|
|-----------------|---------------------|


   Chorus
    D5                     A5
    Gtrs III, IV
                     PM|                    PM|
      E  E E E E E E S S     E  E E E E E E S S
||-----------------------|----------------------|
||o----------------------|----------------------|
||-----------------------|----------------------|
||----0--0-0-0-0-0-0-0-0-|---7--7-7-7-7-7-7-7-7-|
||o---0--0-0-0-0-0-0-0-0-|---7--7-7-7-7-7-7-7-7-|
||----0--0-0-0-0-0-0-0-0-|---7--7-7-7-7-7-7-7-7-|
|
|   Gtr V
|     ~~~~~~~~~~~~~~~~~~~~~~~~~~~~~~~~~~~~~~~~~~~
|    +W                     +W
||--(22)-----------------|-(22)-----------------|
||o----------------------|----------------------|
||-----------------------|----------------------|
||-----------------------|----------------------|
||o----------------------|----------------------|
||-----------------------|----------------------|


  G5
    E  E E E E E E E     E  E E E E E E E
|--------------------|--------------------|
|--------------------|--------------------|
|--------------------|--------------------|
|---5--5-5-5-5-5-5-5-|---5--5-5-5-5-5-5-5-|
|---5--5-5-5-5-5-5-5-|---5--5-5-5-5-5-5-5-|
|---5--5-5-5-5-5-5-5-|---5--5-5-5-5-5-5-5-|
|
|                        >
|~~~~~~~~~~~~~~~~~~~~~~~~~~~
|  +W                   +W
|-(22)---------------|-(22)---------------|
|--------------------|--------------------|
|--------------------|--------------------|
|--------------------|--------------------|
|--------------------|--------------------|
|--------------------|--------------------|


  D5                        A5
                      PM|                        PM|
   E  E E  E  E E  E  S S     E  E  E  E E  E  E S S
|-------------------------|--------------------------|
|-------------------------|--------------------------|
|-------------------------|--------------------------|
|--0--0-0--0--0-0--0--0-0-|---7--7--7--7-7--7--7-7-7-|
|--0--0-0--0--0-0--0--0-0-|---7--7--7--7-7--7--7-7-7-|
|--0--0-0--0--0-0--0--0-0-|---7--7--7--7-7--7--7-7-7-|
|
|                     ~~~~~~~~~~~
|  E  Q    Q.      E  E      +Q     E  Q    Q.
|-15-14---12------14-15---|-(15)---14-12---10--------|
|-------------------------|--------------------------|
|-------------------------|--------------------------|
|-------------------------|--------------------------|
|-------------------------|--------------------------|
|-------------------------|--------------------------|


  G5
   E E E E E E E E     E  E E E E E E E
|------------------|-------------------------||
|------------------|------------------------o||
|------------------|-------------------------||
|--5-5-5-5-5-5-5-5-|---5--5-5-5-5-5-5-5------||
|--5-5-5-5-5-5-5-5-|---5--5-5-5-5-5-5-5-----o||
|--5-5-5-5-5-5-5-5-|---5--5-5-5-5-5-5-5------||
|
|  ~~~~~~~~~~~~~~~~~~~~~~~~~~~~~~~~~~~~~~~~~
|  W                  +W                  a
|-10---------------|-(10)---------------/22--||
|------------------|------------------------o||
|------------------|-------------------------||
|------------------|-------------------------||
|------------------|------------------------o||
|------------------|-------------------------||


  D5                        A5
                      PM|                        PM|
   E  E E  E  E E  E  S S     E  E  E  E E  E  E S S
|-------------------------|--------------------------|
|-------------------------|--------------------------|
|-------------------------|--------------------------|
|--0--0-0--0--0-0--0--0-0-|---7--7--7--7-7--7--7-7-7-|
|--0--0-0--0--0-0--0--0-0-|---7--7--7--7-7--7--7-7-7-|
|--0--0-0--0--0-0--0--0-0-|---7--7--7--7-7--7--7-7-7-|
|
|                     ~~~~~~~~~~~
|  E  Q    Q.      E  E      +Q     E  Q    Q.
|-15-14---12------14-15---|-(15)---14-12---10--------|
|-------------------------|--------------------------|
|-------------------------|--------------------------|
|-------------------------|--------------------------|
|-------------------------|--------------------------|
|-------------------------|--------------------------|


  G5
   E E E E E E E E     E  E E E E E E S S
|------------------|----------------------||
|------------------|----------------------||
|------------------|----------------------||
|--5-5-5-5-5-5-5-5-|---5--5-5-5-5-5-5-5-5-||
|--5-5-5-5-5-5-5-5-|---5--5-5-5-5-5-5-5-5-||
|--5-5-5-5-5-5-5-5-|---5--5-5-5-5-5-5-5-5-||
|
|  ~~~~~~~~~~~~~~~~~~~~~~~
|  W                  +W
|-10---------------|-(10)-----------------||
|------------------|----------------------||
|------------------|----------------------||
|------------------|----------------------||
|------------------|----------------------||
|------------------|----------------------||


 Interlude
  D5                Dsus4               D                   Dsus4
  Gtr I
  E E E E E E E E    E  E E E E E E E    E  E E E E E E E    E  E E E E E E E
|-5-----5-----5---|--3------3-----3---|--2------2-----2---|--3------3-----3----|
|---3-3---3-3---3-|-----3-3---3-3---3-|-----3-3---3-3---3-|-----3-3---3-3---3--|
|-----------------|-------------------|-------------------|--------------------|
|-----------------|-------------------|-------------------|--------------------|
|-----------------|-------------------|-------------------|--------------------|
|-----------------|-------------------|-------------------|--------------------|
|
| Gtr II
| W                  W                   W                   W
|-5---------------|--3----------------|--2----------------|--3-----------------|
|-3---------------|--3----------------|--3----------------|--3-----------------|
|-----------------|-------------------|-------------------|--------------------|
|-0---------------|--0----------------|--0----------------|--0-----------------|
|-----------------|-------------------|-------------------|--------------------|
|-0---------------|--0----------------|--0----------------|--0-----------------|
|
| Gtrs III, IV
| >
| W                 +W                  +W                  +W
|-----------------|-------------------|-------------------|--------------------|
|-----------------|-------------------|-------------------|--------------------|
|-----------------|-------------------|-------------------|--------------------|
|-0---------------|-(0)---------------|-(0)---------------|-(0)----------------|
|-0---------------|-(0)---------------|-(0)---------------|-(0)----------------|
|-0---------------|-(0)---------------|-(0)---------------|-(0)----------------|


  D5                Dsus4             D                  Dsus4
  E E E E E E E E   E E E E E E E E    E E E E E E E E     E  E E E E E E E
|-5-----5-----5---|-3-----3-----3---|--2-----2-----2---|---3------3-----3----|
|---3-3---3-3---3-|---3-3---3-3---3-|----3-3---3-3---3-|------3-3---3-3---3--|
|-----------------|-----------------|------------------|---------------------|
|-----------------|-----------------|------------------|---------------------|
|-----------------|-----------------|------------------|---------------------|
|-----------------|-----------------|------------------|---------------------|
|
|                                     Gtr V
|                                      ~~~~~~~~~~~~~~~~~~~~~~~
| W                 W                  W                  +W
|-5---------------|-3---------------|-22---------------|-(22)----------------|
|-3---------------|-3---------------|------------------|---------------------|
|-----------------|-----------------|------------------|---------------------|
|-0---------------|-0---------------|------------------|---------------------|
|-----------------|-----------------|------------------|---------------------|
|-0---------------|-0---------------|------------------|---------------------|
|
|                                      <
| W                 W                  E E E E E E E E     E  E E E E E E E
|-----------------|-----------------|------------------|---------------------|
|-----------------|-----------------|------------------|---------------------|
|-----------------|-----------------|------------------|---------------------|
|-----------------|-----------------|--0-0-0-0-0-0-0-0-|---0--0-0-0-0-0-0-0--|
|-----------------|-----------------|--0-0-0-0-0-0-0-0-|---0--0-0-0-0-0-0-0--|
|-----------------|-----------------|--0-0-0-0-0-0-0-0-|---0--0-0-0-0-0-0-0--|


   Chorus
    D5                   A5
    Gtrs III, IV
                   PM|                    PM|
     E E E E E E E S S     E  E E E E E E S S
||---------------------|----------------------|
||o--------------------|----------------------|
||---------------------|----------------------|
||---0-0-0-0-0-0-0-0-0-|---7--7-7-7-7-7-7-7-7-|
||o--0-0-0-0-0-0-0-0-0-|---7--7-7-7-7-7-7-7-7-|
||---0-0-0-0-0-0-0-0-0-|---7--7-7-7-7-7-7-7-7-|
|
|   Gtr V
|    ~~~~~~~~~~~~~~~~~~~~~~~~~~~~~~~~~~~~~~~~~~
|    W                    +W
||--22-----------------|-(22)-----------------|
||o--------------------|----------------------|
||---------------------|----------------------|
||---------------------|----------------------|
||o--------------------|----------------------|
||---------------------|----------------------|


  G5
    E  E E E E E E E     E  E E E E E E E
|--------------------|--------------------|
|--------------------|--------------------|
|--------------------|--------------------|
|---5--5-5-5-5-5-5-5-|---5--5-5-5-5-5-5-5-|
|---5--5-5-5-5-5-5-5-|---5--5-5-5-5-5-5-5-|
|---5--5-5-5-5-5-5-5-|---5--5-5-5-5-5-5-5-|
|
|                        >
|~~~~~~~~~~~~~~~~~~~~~~~~~~~
|  +W                   +W
|-(22)---------------|-(22)---------------|
|--------------------|--------------------|
|--------------------|--------------------|
|--------------------|--------------------|
|--------------------|--------------------|
|--------------------|--------------------|


  D5                        A5
                      PM|                        PM|
   E  E E  E  E E  E  S S     E  E  E  E E  E  E S S
|-------------------------|--------------------------|
|-------------------------|--------------------------|
|-------------------------|--------------------------|
|--0--0-0--0--0-0--0--0-0-|---7--7--7--7-7--7--7-7-7-|
|--0--0-0--0--0-0--0--0-0-|---7--7--7--7-7--7--7-7-7-|
|--0--0-0--0--0-0--0--0-0-|---7--7--7--7-7--7--7-7-7-|
|
|                     ~~~~~~~~~~~
|  E  Q    Q.      E  E      +Q     E  Q    Q.
|-15-14---12------14-15---|-(15)---14-12---10--------|
|-------------------------|--------------------------|
|-------------------------|--------------------------|
|-------------------------|--------------------------|
|-------------------------|--------------------------|
|-------------------------|--------------------------|


  G5
   E E E E E E E E     E  E E E E E E E
|------------------|-------------------------||
|------------------|------------------------o||
|------------------|-------------------------||
|--5-5-5-5-5-5-5-5-|---5--5-5-5-5-5-5-5------||
|--5-5-5-5-5-5-5-5-|---5--5-5-5-5-5-5-5-----o||
|--5-5-5-5-5-5-5-5-|---5--5-5-5-5-5-5-5------||
|
|  ~~~~~~~~~~~~~~~~~~~~~~~
|  W                  +W                  a
|-10---------------|-(10)---------------/22--||
|------------------|------------------------o||
|------------------|-------------------------||
|------------------|-------------------------||
|------------------|------------------------o||
|------------------|-------------------------||


    D5                        A5
                        PM|                        PM|
     E  E E  E  E E  E  S S     E  E  E  E E  E  E S S
||--------------------------|--------------------------|
||o-------------------------|--------------------------|
||--------------------------|--------------------------|
||---0--0-0--0--0-0--0--0-0-|---7--7--7--7-7--7--7-7-7-|
||o--0--0-0--0--0-0--0--0-0-|---7--7--7--7-7--7--7-7-7-|
||---0--0-0--0--0-0--0--0-0-|---7--7--7--7-7--7--7-7-7-|
|
|                       ~~~~~~~~~~~
|    E  Q    Q.      E  E      +Q     E  Q    Q.
||--15-14---12------14-15---|-(15)---14-12---10--------|
||o-------------------------|--------------------------|
||--------------------------|--------------------------|
||--------------------------|--------------------------|
||o-------------------------|--------------------------|
||--------------------------|--------------------------|


  G5
   E E E E E E E E     E  E E E E E E E  3x
|------------------|---------------------||
|------------------|--------------------o||
|------------------|---------------------||
|--5-5-5-5-5-5-5-5-|---5--5-5-5-5-5-5-5--||
|--5-5-5-5-5-5-5-5-|---5--5-5-5-5-5-5-5-o||
|--5-5-5-5-5-5-5-5-|---5--5-5-5-5-5-5-5--||
|
|  ~~~~~~~~~~~~~~~~~~~~~~~
|  W                  +W                 3x
|-10---------------|-(10)----------------||
|------------------|--------------------o||
|------------------|---------------------||
|------------------|---------------------||
|------------------|--------------------o||
|------------------|---------------------||


Duration Legend
---------------
W - whole; H - half; Q - quarter; E - 8th; S - 16th; T - 32nd; X - 64th; a - acciaccatura
+ - note tied to previous; . - note dotted; .. - note double dotted
Uncapitalized letters represent notes that are staccato (1/2 duration)
Irregular groupings are notated above the duration line
Duration letters will always appear directly above the note/fret number it represents the
duration for.  Duration letters with no fret number below them represent rests.  Multi-
bar rests are notated in the form Wxn, where n is the number of bars to rest for.  Low
melody durations appear below the staff

Tablature Legend
----------------
 h   - hammer-on
 p   - pull-off
 b   - bend
 pb  - pre-bend
 r   - bend release (if no number after the r, then release immediately)
 /\  - slide into or out of (from/to "nowhere")
 s   - legato slide
 S   - shift slide
  - natural harmonic
[n]  - artificial harmonic
n(n) - tapped harmonic
 ~   - vibrato
 tr  - trill
 T   - tap
 TP  - trem. picking
 PM  - palm muting
\n/  - tremolo bar dip; n = amount to dip
 \n  - tremolo bar down
 n/  - tremolo bar up
/n\  - tremolo bar inverted dip
 =   - hold bend; also acts as connecting device for hammers/pulls
 <>  - volume swell (louder/softer)
 x   - on rhythm slash represents muted slash
 o   - on rhythm slash represents single note slash

Misc Legend
-----------
 |  - bar
||  - double bar
||o - repeat start
o|| - repeat end
*|  - double bar (ending)
 :  - bar (freetime)
 $  - Segno
 &  - Coda
Tempo markers -  = BPM(8/16=s8/s16), where s8 = swing 8ths, s16 = swing 16ths
Comments