Deadly Noisemaker - Lead You To Death Chords & Tabs

 

Lead You To Death Chords & Tabs

Deadly Noisemaker Chords & Tabs

Version: 1 Type: Bass Tab 0 ratings
1 star 2 stars 3 stars 4 stars 5 stars
comments

Lead You To Death Bass Tab

   
Band: Deadly Noisemaker
Song: Lead You To Death

Tuning (low to high): D A D G

Intro (olli)


Verse: Freddy
G-------------6--7-------------6--7--------2~~--------2~~---
D-------5--7-------------5--7--------------2~~--------2~~---
A-5--7-------------5--7--------------2--2-------2--2--------
D-----------------------------------------------------------

Pre-Chorus
G----------------------------------------------------------------
D----------------------------------------------------------------
A----------------------------------------------------------------
D-6-6-6-6-6-6-6-6-6-6-6-6-6-6-6-6-5-5-5-5-5-5-5-5-5-5-5-5-5-5-5-5
[ Tab from: http://www.guitartabs.cc/tabs/d/deadly_noisemaker/lead_you_to_death_btab.html ]
G----------------------------------------------------------------
D----------------------------------------------------------------
A----------------------------------------------------------------
D-6-6-6-6-6-6-6-6-6-6-6-6-6-6-6-6-5-5-5-5-5-5-5-5-3-------0------
            
Chorus
D-----------------------------------------------------
A-----------------------------------------------------
D-3---3---3-3-3---3---3-3---0---0---0-0-0---0---0-0---

D-----------------------------------------------------
A-----------------------------------------------------
D-4---4---4-4-4---4---4-4---0---0---0-0-0---0---0-0---


Bridge
D---------------------------------------------
A---------------------------------------------  2X
D-0---------------------0---------------------


Outro
D---------------------------------------------
A---------------------------------------------  2X
D-0-1-0-1-0--0-1--0-1-0-0-1-0-1-0--0-1--0-1-0-
  slapping
Comments