Deadly Noisemaker - Deep Innosence Chords & Tabs

 

Deep Innosence Chords & Tabs

Deadly Noisemaker Chords & Tabs

Version: 1 Type: Tab 0 ratings
1 star 2 stars 3 stars 4 stars 5 stars
comments

Deep Innosence Tab

   
Artist: Deadly Noisemaker
Song: Deep Innosence 
Check out: www.listen.to/deadly-noisemaker

Tuning (low to high): D A D G H E

Intro: Olli - clean
E-------------------------------------------------------------
H-------------------------------------------------------------
G------------------------------------------------------------- Play this riff
D--------2--------------5--------------0--------------7------- two times
A---2---------2----5---------5----0---------0----7---------7--
D-2----2----2----5----5----5----0----0----0----7----7----7----

[ Tab from: http://www.guitartabs.cc/tabs/d/deadly_noisemaker/deep_innosence_tab.html ]
Verse: Introriff + Freddy + Hauke w/flanger+delay
E-7--7-7-5-7-5-3--5-3-0--7--7-7-5-7-5-3-------
H--------------------------------------------- Freddy plays this part
G---------------------------------------------

E-----------------------------------------------------
H-8--8-8-7-8-7-5---------8--8-8-7-8-7-5///12-12--13-12 Hauke plays this part
G-----------------------------------------------------


Chorus: deadly distortion
E------------------------------------
H------------------------------------
G-4--4-4-4/7--7-7-7\2--2-2-2/9--9-9-9
D-2--2-2-2/5--5-5-5\0--0-0-0/7--7-7-7
A-2--2-2-2/5--5-5-5\0--0-0-0/7--7-7-7
D-2--2-2-2/5--5-5-5\0--0-0-0/7--7-7-7
Comments