Deadlines - Poison Tongue Chords & Tabs

 

Poison Tongue Chords & Tabs

Deadlines Chords & Tabs

Version: 1 Type: Tab 0 ratings
1 star 2 stars 3 stars 4 stars 5 stars
comments

Poison Tongue Tab

Band: Deadlines
Song: Poison Tongue

Tabber: John Cukras
email: riffreaper@yahoo.com

Tuning: Normal

Riff 1:
E-----------------------------------------|
B-----------------------------------------|
G-----------------------------------------|
D-9-99-7-77-5-55-4-44---------------------|
A-7-77-5-55-3-33-2-22-555555-777777-------|
E---------------------333333-555555 x's 4-|

Riff 2:
E--------------------|
B--------------------|
G--------------------|
D-22-2---------------|
A-22-2-5-77-77-------|
E-00-0-3-55-55 x's 4-|

Riff 1

Riff 2
[ Tab from: http://www.guitartabs.cc/tabs/d/deadlines/poison_tongue_tab.html ]
Riff 3:
E--------------------------------|
B--------------------------------|
G--------------------------------|
D--------------------------------|
A-555555-777777--------999999999-|
E-333333-555555 x's 3--777777777-|

Riff 1 x's 6

Riff 2

Riff 3

Riff 1 (solo starts on third time)

Riff 2

Riff 3

Solo thingy:
E--------------------------------------------------------------------------------------------------------|
B--------------------------------------------------------------------------------------------------------|
G------------------------------------14-15^-15-14-12------------------------------1515151515-1717171717--|
D-14-141414-141414-141414-1717171717-----------------141414-171717-141414-171717-------------------------|
A--------------------------------------------------------------------------------------------------------|
E--------------------------------------------------------------------------------------------------------|
Comments