Deadeye Dick - Mary Moon Chords & Tabs

 

Mary Moon Chords & Tabs

Deadeye Dick Chords & Tabs

Version: 1 Type: Tab 0 ratings
1 star 2 stars 3 stars 4 stars 5 stars
comments

Mary Moon Tab

DeadEye Dick - Mary Moon

e|-----------------------------------------------------------------------|
B|-----------------------------------------------------------------------|
G|-7~~~------------------------------------------------------------------|
D|-7~~~------------- Let Ring -------------------------------------------|
A|-7~~~------------------------------------------------------------------|
E|-5~~~------------------------------------------------------------------|

e|-----------------------------------------------------------------------|
B|-----------------------------------------------------------------------|
G|---6-7-6--------5------------------------------------------------------|
D|-7-6-7-6-5-4-5--5--7---------------------------------------------------|
A|-7-4-5-4-5-4-5--3--7---------------------------------------------------|
E|-5-------3-2-3-----5---------------------------------------------------|
[ Tab from: http://www.guitartabs.cc/tabs/d/deadeye_dick/mary_moon_tab.html ]
Verse
e|-----------------------------------------------------------------------|
B|-----------------------------------------------------------------------|
G|-------6-7-7--7----------------------------7---------------------------|
D|-7-7-7-6-7-7-7---5-5-5-7-7-7-----7-------7---7--------x2---------------|
A|-7-7-7-4-5-5-5---5-5-5-7-7-7-----7-----7--------7----------------------|
E|-5-5-5-----------3-3-3-5-5-5-----5---5-------------5-------------------|
Pm............................................

Chorus
e|-----------------------------------------------------------------------|
B|-----------------------------------------------------------------------|
G|-9----7----------------------------------------------------------------|
D|-9--7-7--7-------------------------------------------------------------|
A|-7--7-5--7-------------------------------------------------------------|
E|----5----5-------------------------------------------------------------|

"she loves me so she hates to blow"
e|-----------------------------------------------------------------------|
B|-----------------------------------------------------------------------|
G|-9---------------------------------------------------------------------|
D|-9--------------------3------------------------------7-----------------|
A|-7--------------------3------------------------------7-----------------|
E|----------------------1------------------------------5-------------12/-|

Bridge
e|-----------------------------------------------------------------------|
B|-----------------------------------------------------------------------|
G|--------5---------7----------------------------------------------------|
D|--3-----5----5----7----------------------------------------------------|
A|--3-----3----5----5----------------------------------------------------|
E|--1----------3---------------------------------------------------------|
Comments