Dead To Fall - Blood Of The Moon Chords & Tabs

 

Blood Of The Moon Chords & Tabs

Dead To Fall Chords & Tabs

Version: 1 Type: Tab 0 ratings
1 star 2 stars 3 stars 4 stars 5 stars
comments

Blood Of The Moon Tab

   
Band:Dead To Fall
Song:Blood Of The Moon
Album:Villainy & Virtue
Tuning:Drop-D
Tabber:Christian Mican

Intro
--------|
--------|
--------|          (You could find the order of the song out, if you can't
-0------|           I don't know what to tell you)
-0------|
-0------|

Riff 1
------------------------------------------------------------|
------------------------------------------------------------|
------------------------------------------------------------|
------------------------------------------------------------|
--8-------7-------5---------------8-------7------10------8--|
------------------------------------------------------------|
Trem pick...................................................
[ Tab from: http://www.guitartabs.cc/tabs/d/dead_to_fall/blood_of_the_moon_tab.html ]
Rift2.................................................
-|-----------------|-        -|------------------|-  .
-|-----------------|-        -|------------------|-  .
-|-----------------|-        -|------------------|-  .
-|-----------------|-        -|------------------|-  .
-|-----8----7----4-|-        -|-----8----7----4*-|-  .
-|-000---00---00---|-        -|-000---00---00----|-  .
......................................................
Part of firt 2
-|----------------------------------------------------------------|
-|----------------------------------------------------------------|
-|----------------------------------------------------------------|
-|----------------------------------------------------------------|
-|-----13131313131315151515151512-----12121212121210101010101013--|
-|-000----------------------------000-----------------------------|
   ... Trem...................... ... Trem......................
Transition
-------------|
-------------|
-------------|
-------------|
-0-0-0-------|
-0-0-0-------|
pm....


Riff 3

------------------------------------------------|
------------------------------------------------|
------------------------------------------------|
------------------------------------------------|
-------8-7-8-7-8---7/5-------8-7-8------8-7-8---|
-0-0-0--0-0-0-0--0------0-0-0-0-0--0-0-0-0-0----|
                                                    -Christian J. Mican
Comments