Dead Poetic - Stereo Child Chords & Tabs

 

Stereo Child Chords & Tabs

Dead Poetic Chords & Tabs

Version: 2 Type: Tab 0 ratings
1 star 2 stars 3 stars 4 stars 5 stars
comments

Stereo Child Tab

-----------------------------------------------------------------------------
			     STEREO CHILD - Dead Poetic
-----------------------------------------------------------------------------
Tabbed by: Jennifer
Email: sonic_speed_@hotmail.com

Tuning: Dropped D 

Intro:
e------------------|
B-2---2-2-5---5-2--|
G-2---2-2-2---2-2--|
D------------------|
A------------------|
D------------------|

Intro: (Continued (x4))
e--------------------------------------|
B--------------------------------------|
G--------------------------------------|
D-2/4-4-4-4-4-2-2--2/4-4-4-4-4-2/4p0~--|
A-2/4-4-4-4-4-2-2--2/4-4-4-4-4-2/4p0~--|
D-2/4-4-4-4-4-2-2--2/4-4-4-4-4-2/4p0~--|

Intro: (Continued (x4))

Guitar
e------------------------------------------------------------------|
B-2---2-2-5---5-2---2-2-2-5---5---2---2-2-5---5-2----2-2-2--5---5--|
G-2---2-2-2---2-2---2-2-2-2---2---2---2-2-2---2-2----2-2-2--2---2--|
D-0---0-0-0---0-0---0-0-0-0---0---2---2-2-2---2-2----2-2-2--2---2--|
A---------------------------------0---0-0-0---0-0----0-0-0--0---0--|
D------------------------------------------------------------------|

Piano (Tabbed out for guitar)
e-22-------21-------17---------|
B------------------------------|
G------------------------------|
D------------------------------|
A------------------------------|
D------------------------------|

Pre-Verse:
e------------------|
B-2---2-2-5---5-2--|
G-2---2-2-2---2-2--|
D-0---0-0-0---0-0--|
A------------------|
D------------------|

Verse 1: x4
e--------------------------------------------------------|
B-2---2-2-5---2---2-2--5--2---2---2-2-5---2---2-2--5--5--|
G-2---2-2-2---2---2-2--2--2---2---2-2-2---2---2-2--2--2--|
D-0---0-0-0---0---0-0--0--0---2---2-2-2---2---2-2--2--2--|
A-----------------------------0---0-0-0---0---0-0--0--0--|
D--------------------------------------------------------|

Chorus: x4
e--------------------------------------|
B--------------------------------------|
G--------------------------------------|
D-2/4-4-4-4-4-2-2--2/4-4-4-4-4-2/4p0~--|
A-2/4-4-4-4-4-2-2--2/4-4-4-4-4-2/4p0~--|
D-2/4-4-4-4-4-2-2--2/4-4-4-4-4-2/4p0~--|
[ Tab from: http://www.guitartabs.cc/tabs/d/dead_poetic/stereo_child_tab_ver_2.html ]
Pre-Verse:
e------------------|
B-2---2-2-5---5-2--|
G-2---2-2-2---2-2--|
D-0---0-0-0---0-0--|
A------------------|
D------------------|

Verse 2: x4
e--------------------------------------------------------|
B-2---2-2-5---2---2-2--5--2---2---2-2-5---2---2-2--5--5--|
G-2---2-2-2---2---2-2--2--2---2---2-2-2---2---2-2--2--2--|
D-0---0-0-0---0---0-0--0--0---2---2-2-2---2---2-2--2--2--|
A-----------------------------0---0-0-0---0---0-0--0--0--|
D--------------------------------------------------------|

Bridge 1: x4
e--------------------------|
B--------------------------|
G-2-2--2-2--2-2--2-2-------|
D-0-0--0-0--0-0--0-0--4-2--|
A---------------------4-2--|
D---------------------4-2--|

Bridge 1: (Continued (x2))
e----------------------------------------------------|
B-2-2-2--------2-2-2--------2-2-2--------2-2-2-------|
G-2-2-2--------2-2-2--------2-2-2--------2-2-2-------|
D-0-0-0--0-2---0-0-0--0-2---0-0-0--0-2---0-0-0--0-2--|
A--------0-2----------0-2----------0-2----------0-2--|
D--------0-2----------0-2----------0-2----------0-2--|

Chorus: x4
e--------------------------------------|
B--------------------------------------|
G--------------------------------------|
D-2/4-4-4-4-4-2-2--2/4-4-4-4-4-2/4p0~--|
A-2/4-4-4-4-4-2-2--2/4-4-4-4-4-2/4p0~--|
D-2/4-4-4-4-4-2-2--2/4-4-4-4-4-2/4p0~--|

Bridge 2: x8			  (Then do this x4)
e-------------------------------|--------------------|
B-5-5--5-5--5-5--5-5--5-5-2-2---|-2~----5~----2~-----|
G-2-2--2-2--2-2--2-2--2-2-2-2---|-2~----2~----2~-----|
D-------------------------------|--------------------|
A-------------------------------|--------------------|
D-------------------------------|--------------------|

Ending: x2
e----------------------------------------------------------------|
B-2---2-2-2-2-5---2---2-2-2-2-5---2---2-2-2-2-5---2---2-2-2-2-5--|
G-2---2-2-2-2-2---2---2-2-2-2-2---2---2-2-2-2-2---2---2-2-2-2-2--|
D-0---0-0-0-0-0---0---0-0-0-0-0---0---0-0-0-0-0---0---0-0-0-0-0--|
A----------------------------------------------------------------|
D----------------------------------------------------------------|

End with:
e--------------|
B-2---5---2~---|
G-2---2---2~---|
D-0---0---0~---|
A--------------|
D--------------|

| /  slide up
| \  slide down
| ~  vibrato
=============================================================================
Comments