Dead Poetic - New Medicines Chords & Tabs

 

New Medicines Chords & Tabs

Dead Poetic Chords & Tabs

Version: 1 Type: Bass Tab 0 ratings
1 star 2 stars 3 stars 4 stars 5 stars
comments

New Medicines Bass Tab

Band: Dead Poetic
Song: New Medicines
Album: New Medicines

Verse 1: (x4)
G)---------------------------------------------------------------------|
D)---------------------------------------------------------------------|
A)----------------------7-7-7-----------2-2-2----------2-2-2-----------|
D)--4-4--4-4----4-4--4----------0-0--0---------0-0--0------------------|

Chorus 1: (x2)
G)---------------------------------------------------------------------|
D)---------------------------------------------------------------------|
A)---------------------------------------------------------------------|
D)--9--9--9--9---4-4--4-4---0-0--0-0--4-4--4-4-------------------------|

Bridge: (x4)
G)---------------------------------------------------------------------|
D)---------------------------------------------------------------------|
A)---------------------------------------------------------------------|
D)--4-4--4-4-4--4-4-4--4-4-4-2-2-0-0--0-0-0--0-0-0--0-0-0-0-0----------|

Chorus 2: (x4)
G)---------------------------------------------------------------------|
D)---------------------------------------------------------------------|
A)-------------------9-------------------------------------------------|
D)--9~~--9~~--9--9-----------7~--7~--7-7---4~--4~--4-4-----------------|
[ Tab from: http://www.guitartabs.cc/tabs/d/dead_poetic/new_medicines_btab.html ]
Verse 2: (x3)
G)---------------------------------------------------------------------|
D)---------------------------------------------------------------------|
A)----------------------7-7-7-----------2-2-2----------2-2-2-----------|
D)--4-4--4-4----4-4--4----------0-0--0---------0-0--0------------------|

Bridge between verse2 and chorus 3:  (x2)
G)---------------------------------------------------------------------|
D)---------------------------------------------------------------------|
A)---------------------------------------------------------------------|
D)--4-4--4-4-4--4-4-4--4-4-4-2-2-0-0--0-0-0--0-0-0--0-0-0-0-0----------|

Chorus 3: (x4)
G)---------------------------------------------------------------------|
D)---------------------------------------------------------------------|
A)-------------------9-------------------------------------------------|
D)--9~~--9~~--9--9-----------7~--7~--7-7---4~--4~--4-4-----------------|

Bridge: (x4)
G)---------------------------------------------------------------------|
D)---------------------------------------------------------------------|
A)---------7-7-7---------5-4-4-----------------------------------------|
D)--4-4-4---------4-4-4---------0-0-0--------------0-0-0---------------|

Chorus 4: (x4)
G)---------------------------------------------------------------------|
D)---------------------------------------------------------------------|
A)---------------------------------------------------------------------|
D)--9~~--9~~--9--9-----------7~--7~--7-7---4~--4~--4-4-----------------|

Outro:
G)---------------------------------------------------------------------|
D)---------------------------------------------------------------------|
A)---------------------------------------------------------------------|
D)--4-4--4-4-4--4-4-4--4-4-4-2-2-0-0--0-0-0--0-0-0--0-0-0-0-0----------|
Comments