Dead Poetic - Molotov Chords & Tabs

 

Molotov Chords & Tabs

Dead Poetic Chords & Tabs

Version: 1 Type: Tab 0 ratings
1 star 2 stars 3 stars 4 stars 5 stars
comments

Molotov Tab

-----------------------------------------------------------------------------
			     MOLOTOV - Dead Poetic
-----------------------------------------------------------------------------
Tabbed by: Jennifer
Email: sonic_speed_@hotmail.com

Tuning: Dropped D

Verse 1: x4

Guitar 1 (Palm Mute)
e-------------------------------------------------------------|
B-------------------------------------------------------------|
G-7-7-7---7-7---7-7-7-7---7-7---4-4-4---4-4---4-4-4-4---4-4---|
D-7-7-7---7-7---7-7-7-7---7-7---4-4-4---4-4---4-4-4-4---4-4---|
A-5-5-5---5-5---5-5-5-5---5-5---2-2-2---2-2---2-2-2-2---2-2---|
D-------------------------------------------------------------|


Guitar 2 Comes in After 2x.
e-------------------------------------5--------------5--------|
B-5----------2---5----------2---5---------8---5----------8----|
G----7---4----------7---4----------7--------------7-----------|
D-------------------------------------------------------------|
A-------------------------------------------------------------|
D-------------------------------------------------------------|

Pre-Chorus: (Palm Mute)
e-----------------------|
B-----------------------|
G-7-7-7--7-7--7\6/11~---|
D-7-7-7--7-7--7\6/11~---|
A-5-5-5--5-5--5\4/9-~---|
D-----------------------|

Chorus: x 2
e--------------------------------------------------------------|
B--------------------------------------------------------------|
G-11-11-11---11\--9/--11/--12\--11~-----7--7-7-7--6/7--7-7-7---|
D-x--x--x----x-\--x/--x-/--x-\--x-~-----7--7-7-7--6/7--7-7-7---|
A-9--9--9----9-\--7/--9-/--10\--9-~-----5--5-5-5--4/5--5-5-5---|
D--------------------------------------------------------------|

Verse 2: x4

Guitar 1 (Palm Mute)
e-------------------------------------------------------------|
B-------------------------------------------------------------|
G-7-7-7---7-7---7-7-7-7---7-7---4-4-4---4-4---4-4-4-4---4-4---|
D-7-7-7---7-7---7-7-7-7---7-7---4-4-4---4-4---4-4-4-4---4-4---|
A-5-5-5---5-5---5-5-5-5---5-5---2-2-2---2-2---2-2-2-2---2-2---|
D-------------------------------------------------------------|


Guitar 2 Comes in After 2x.
e-------------------------------------5--------------5--------|
B-5----------2---5----------2---5---------8---5----------8----|
G----7---4----------7---4----------7--------------7-----------|
D-------------------------------------------------------------|
A-------------------------------------------------------------|
D-------------------------------------------------------------|
[ Tab from: http://www.guitartabs.cc/tabs/d/dead_poetic/molotov_tab.html ]
Pre-Chorus: (Palm Mute)
e-----------------------|
B-----------------------|
G-7-7-7--7-7--7\6/11~---|
D-7-7-7--7-7--7\6/11~---|
A-5-5-5--5-5--5\4/9-~---|
D-----------------------|

Chorus: x4
e--------------------------------------------------------------|
B--------------------------------------------------------------|
G-11-11-11---11\--9/--11/--12\--11~-----7--7-7-7--6/7--7-7-7---|
D-x--x--x----x-\--x/--x-/--x-\--x-~-----7--7-7-7--6/7--7-7-7---|
A-9--9--9----9-\--7/--9-/--10\--9-~-----5--5-5-5--4/5--5-5-5---|
D--------------------------------------------------------------|

Fill:
e--------------------------|
B--------------------------|
G--------------------------|
D-5-5-5--5-5--4-4-4--4-4---|
A-5-5-5--5-5--4-4-4--4-4---|
D-5-5-5--5-5--4-4-4--4-4---|

Bridge 1: x4

Guitar 1
e----------------------------------------------|
B----------------------------------------------|
G------7~---------7~----4~---7~----6~---7-6~---|
D-5~---7~----4~---7~----4~---7~----6~---7-6~---|
A-5~---5~----4~---5~----2~---5~----4~---5-4~---|
D-5~---------4~--------------------------------|

Guitar 2 Comes in After 1x (Using some sort of effect)
e-10--9--5--7-5--10--9--5--7-5---|
B--------------------------------|
G--------------------------------|
D--------------------------------|
A--------------------------------|
D--------------------------------|

Chorus: x4
e--------------------------------------------------------------|
B--------------------------------------------------------------|
G-11-11-11---11\--9/--11/--12\--11~-----7--7-7-7--6/7--7-7-7---|
D-x--x--x----x-\--x/--x-/--x-\--x-~-----7--7-7-7--6/7--7-7-7---|
A-9--9--9----9-\--7/--9-/--10\--9-~-----5--5-5-5--4/5--5-5-5---|
D--------------------------------------------------------------|

Bridge 2: x4

Guitar 1:
e-------------------------------------------------------------|
B-------------------------------------------------------------|
G-7-7-7---7-7---7-7-7-7---7-7---4-4-4---4-4---4-4-4-4---4-4---|
D-7-7-7---7-7---7-7-7-7---7-7---4-4-4---4-4---4-4-4-4---4-4---|
A-5-5-5---5-5---5-5-5-5---5-5---2-2-2---2-2---2-2-2-2---2-2---|
D-------------------------------------------------------------|

Guitar 2 
e-------------------------------------5--------------5--------|
B-5----------2---5----------2---5---------8---5----------8----|
G----7---4----------7---4----------7--------------7-----------|
D-------------------------------------------------------------|
A-------------------------------------------------------------|
D-------------------------------------------------------------|

Ending:
e-------|
B-------|
G--7~---|
D--7~---|
A--5~---|
D-------|


| /  slide up
| \  slide down
| x  mute note
| ~  vibrato
=============================================================================
Comments