Dead Poetic - Molotov Chords & Tabs

 

Molotov Chords & Tabs

Dead Poetic Chords & Tabs

Version: 1 Type: Bass Tab 0 ratings
1 star 2 stars 3 stars 4 stars 5 stars
comments

Molotov Bass Tab

----------------------------------------------------------------------------MOLOTOV-Dead poetic (bass tabs)
----------------------------------------------------------------------------
Tabbed by: Nayt
Email: Happyhamster2@hotmail.com
Tuning: Dropped D

(Verse 1 x4)
G----------------------------------------------------------I
D--------------------------------------------------------- I
A---5-5-5---5-5---5-5-5-5---5-5---2-2-2---2-2--------------I
D----------------------------------------------------------I

Pre-chorus 
G----------------------------------------------------------I
D----------------------------------------------------------I
A-5-5-5--5-5--5-4-9----------------------------------------I
D----------------------------------------------------------I
[ Tab from: http://www.guitartabs.cc/tabs/d/dead_poetic/molotov_btab.html ]
Chorus: x2
G-----------------------------------------------------------------I
D-----------------------------------------------------------------I
A--5-5-5---5-5---5-5-5-5---5-5---2-2-2---2-2---2-2-2-2---2-2------I
D-----------------------------------------------------------------I

Pre-chorus
G---------------------------I
D---------------------------I
A-5-5-5--5-5--5-4-9---------I
D---------------------------I

Chorus x4
G------------------------------------------------------------------------I
D------------------------------------------------------------------------I
A-9--9--9----9-----7---9----10---9---------------5--5-5-5--4--5--5-5-5---I
D------------------------------------------------------------------------I

Fill
G-------------------------------------------I
D-------------------------------------------I
A-------------------------------------------I
D--5-5-5--5-5--4-4-4--4-4-------------------I

Chorus (x4)


Bridge
G------------------------------------------------------------I
D------------------------------------------------------------I
A-5-5-5---5-5---5-5-5-5---5-5---2-2-2---2-2---2-2-2---2-2----I
D------------------------------------------------------------I
Comments