Dead Poetic - Dream Club Murders Chords & Tabs

 

Dream Club Murders Chords & Tabs

Dead Poetic Chords & Tabs

Version: 4 Type: Tab 0 ratings
1 star 2 stars 3 stars 4 stars 5 stars
comments

Dream Club Murders Tab

   
-----------------------------------------------------------------------------
			     THE DREAM CLUB MURDERS - Dead Poetic
-----------------------------------------------------------------------------

Tabbed by: Jennifer
Email: sonic_speed_@hotmail.com

Tuning: Dropped D

e----------------------------------|
B----------------------------------|
G----------------------------------|
D---6-6-6--6-6-6--6-6-6--6-6--x-x--|
A---4-4-4--4-4-4--4-4-4--4-4--x-x--|
D---4-4-4--4-4-4--4-4-4--4-4--x-x--|

e---------------------------------------------------------------------------|
B---------------------------------------------------------------------------|
G---------------------------------------------------------------------------|
D-11-11-11-11-11-11--11-11--11-11-11-10-10--10-10-10-10--10-10--10-10-10-10-|
A-8--8--8--8--8--8---8--8---8--8--8--8--8---8--8--8--8---8--8---8--8--8--8--|
D-8--8--8--8--8--8---8--8---8--8--8--8--8---8--8--8--8---8--8---8--8--8--8--|

e----------------------------------------------|
B----------------------------------------------|
G----------------------------------------------|
D--8-8-8-8---8-8-8--8-8-8--8-8-8--8-8-8-8-x-x--|
A--8-8-8-8---8-8-8--8-8-8--8-8-8--8-8-8-8-x-x--|
D--8-8-8-8---8-8-8--8-8-8--8-8-8--8-8-8-8-x-x--|

e---------------------------------------------------------------------------|
B---------------------------------------------------------------------------|
G---------------------------------------------------------------------------|
D-11-11-11-11-11-11--11-11--11-11-11-10-10--10-10-10-10--10-10--10-10-10-10-|
A-8--8--8--8--8--8---8--8---8--8--8--8--8---8--8--8--8---8--8---8--8--8--8--|
D-8--8--8--8--8--8---8--8---8--8--8--8--8---8--8--8--8---8--8---8--8--8--8--|

e--------------------------------------------|
B--------------------------------------------|
G--------------------------------------------|
D-11-11-11--11-11-11--10-10-10--10-10-10-10--|
A-8--8--8---8--8--8---8--8--8---8--8--8--8---|
D-8--8--8---8--8--8---8--8--8---8--8--8--8---|

Verse: x2
e---------------------------------------------------------------------------|
B---------------------------------------------------------------------------|
G---------------------------------------------------------------------------|
D-11-11-11-11-11-11--11-11--11-11-11-10-10--10-10-10-10--10-10--10-10-10-10-|
A-8--8--8--8--8--8---8--8---8--8--8--8--8---8--8--8--8---8--8---8--8--8--8--|
D-8--8--8--8--8--8---8--8---8--8--8--8--8---8--8--8--8---8--8---8--8--8--8--|

e---------------------------------------------------------------------------|
B---------------------------------------------------------------------------|
G---------------------------------------------------------------------------|
D-13-13-13-13-13-13--13-13--13-13-13-11-11--11-11-11-11--11-11--11-11-11-11-|
A-8--8--8--8--8--8---8--8---8--8--8--8--8---8--8--8--8---8--8---8--8--8--8--|
D-8--8--8--8--8--8---8--8---8--8--8--8--8---8--8--8--8---8--8---8--8--8--8--|

Pre-Chorus:
E--------------------------------------------|
B--------------------------------------------|
G--------------------------------------------|
D-11-11-11--11-11-11--10-10-10--10-10-10-10--|
A-8--8--8---8--8--8---8--8--8---8--8--8--8---|
D-8--8--8---8--8--8---8--8--8---8--8--8--8---|

e----------------------------|
B----------------------------|
G-11xx--11-11--11xx--11-11/--|
D-11xx--11-11--11xx--11-11/--|
A-9-x---9--9---9-x---9--9-/--|
D----------------------------|

Chorus: x 2
e----------------------------------------------|
B----------------------------------------------|
G-------------------11xx--11-11--11xx--11-11/--|
D-4-----6-----4-----11xx--11-11--11xx--11-11/--|
A-4-----6-----4-----9-x---9--9---9-x---9--9-/--|
D-4-----6-----4--------------------------------|
[ Tab from: http://www.guitartabs.cc/tabs/d/dead_poetic/dream_club_murders_tab_ver_4.html ]
Per-Verse:
e---------------------------------------------|
B---------------------------------------------|
G---------------------------------------------|
D-6-11-10/-15b----10-11-10/--6----11/-6-------|
A---------------------------------------------|
D---------------------------------------------|

e---------------------------------------------|
B---------------------------------11b10-------|
G---------------------------------------------|
D-6-11-10/-15b----10-11-10/--6----------------|
A-----------------------------------------8b--|
D---------------------------------------------|

Verse: x2

Pre-Chorus:

Chorus: x2

Bridge 1:
e----------------------------------------------|
B----------------------------------------------|
G----------------------------------------------|
D--10/11--11--11--11---------------------------|
A---------------------13/11--11--8---6--6p-8b--|
D----------------------------------------------|

e----------------------------|
B----------------------------|
G-11xx--11-11--11xx--11-11/--|
D-11xx--11-11--11xx--11-11/--|
A-9-x---9--9---9-x---9--9-/--|
D----------------------------|

e----------------------------------------------|
B----------------------------------------------|
G----------------------------------------------|
D--10/11--11--11--11---------------------------|
A---------------------13/11--11--10--6--6p-8b--|
D----------------------------------------------|

Bridge 2: x2
e---------------------------------------------------------|
B---------------------------------------------------------|
G---------------------------------------------------------|
D-xxxx8---------xxxx8----------6-----------4--------------|
A-xxxx8---------xxxx8----------6--8-9-8/---4--8--11-12/---|
D-xxxx8---------xxxx8----------6-----------4--------------|

"Verse": 'Til End
e---------------------------------------------------------------------------|
B---------------------------------------------------------------------------|
G---------------------------------------------------------------------------|
D-11-11-11-11-11-11--11-11--11-11-11-10-10--10-10-10-10--10-10--10-10-10-10-|
A-8--8--8--8--8--8---8--8---8--8--8--8--8---8--8--8--8---8--8---8--8--8--8--|
D-8--8--8--8--8--8---8--8---8--8--8--8--8---8--8--8--8---8--8---8--8--8--8--|

e---------------------------------------------------------------------------|
B---------------------------------------------------------------------------|
G---------------------------------------------------------------------------|
D-13-13-13-13-13-13--13-13--13-13-13-11-11--11-11-11-11--11-11--11-11-11-11-|
A-8--8--8--8--8--8---8--8---8--8--8--8--8---8--8--8--8---8--8---8--8--8--8--|
D-8--8--8--8--8--8---8--8---8--8--8--8--8---8--8--8--8---8--8---8--8--8--8--|

Ending solo: Fade

Use Delay

e----------------------------------------------------------|
B-------------------------------------------13--14p13~~~~--|
G---------13b14p13~---------------------13-----------------|
D-12~~~--------------12~~~---13p12~~~~~--------------------|
A----------------------------------------------------------|
D----------------------------------------------------------|

e16-16-16-----16~-16-16-16-----16~-16-16-16-----16~-18-18-18----------|
B---------14~--------------14~--------------14~---------------14~-----|
G---------------------------------------------------------------------|
D---------------------------------------------------------------------|
A---------------------------------------------------------------------|
D---------------------------------------------------------------------|

e16-16-16-----16~-16-16-16-----16~-16-16-16-----16~-18-18-18-16-18b~~-|
B---------14~--------------14~--------------14~-----------------------|
G---------------------------------------------------------------------|
D---------------------------------------------------------------------|
A---------------------------------------------------------------------|
D---------------------------------------------------------------------|

| /  slide up
| \  slide down
| h  hammer-on
| p  pull-off
| ~  vibrato
| x  Mute note
============================================================================
Comments