Dead Poetic - Dream Club Murders Chords & Tabs

 

Dream Club Murders Chords & Tabs

Dead Poetic Chords & Tabs

Version: 3 Type: Tab 0 ratings
1 star 2 stars 3 stars 4 stars 5 stars
comments

Dream Club Murders Tab

Dead Poetic-Dream Club Murders
Album-New Medicines
tabber-A7xAlk3Kid182/ Mike


Awesome Song, i think im doing it for my schools talent show next year.  It'll be man.
so i was forced to figure it out...so here it is. i did a tab of the solo which was a
half step up from the way the guy plays it...so ill that...and give you the solo. I
dont have many of the leads because they are so friggin you cant make them out very
good...this probably wont help you that much...it'll just give you an idea.

Intro
e|----------------------------------------------------------------|
B|----------------------------------------------------------------|
G|----------------------------------------------------------------|
D|666-666-666-666-00-11111111/-10-10-10-10-10---------------------|
A|444-444-444-444-00-8-8-8-8---8--8--8--8--8----------------------|
D|444-444-444-444-00-8-8-8-8---8--8--8--8--8----------------------|  X2
PM                **

Then
e|------------------------------------------------------|
B|------------------------------------------------------|
G|-555-555-555-555-666-666-666-666----------------------|
D|-444-444-444-444-666-666-666-666----------------------|
A|-444-444-444-444-444-444-444-444----------------------|
D|-444-444-444-444-444-444-444-444----------------------|


Im having trouble with the verse...i think its something with the two chords in the
and sliding around the 5s+6s, and the 10s+11s.  ill try to show it.
Clean
e|------------------------------------------------------------|
B|------------------------------------------------------------|
G|66-666-5-55-555-5-------------------------------------------|
D|66-666-6-66-666-6--AND---1111-111111-10-1010----------------|
A|44-444-4-44-444-4--------8-8--8-8-8--8--8-8-----------------|
D|44-444-4-44-444-4--------8-8--8-8-8--8--8-8-----------------|
[ Tab from: http://www.guitartabs.cc/tabs/d/dead_poetic/dream_club_murders_tab_ver_3.html ]
^^^^^^^^^^^^^^^^^^^
that might be this
G|-6----------5-|
D|-4----------4-|
A|-4----------4-|
D|-4----and---4-|

Jus Play around with those.

Workin on Chorus...its mostly chords from the intro/verse i think...

Then theres this cool part.
e|-----------------------4----------------------------4b5r4~-------|
B|-----------------------------------------------------------------|
G|1/6-5-5/8---5-5/6-5\1-1~--1~--1/6-5-5/8--5-5/6-5\1~--------2b----|
D|----------------------------------------------------------(7b)---|
A|-----------------------(if you can't bend the 2 good, goto 7)----|
D|-----------------------------------------------------------------|


Solo:
This is one of the easiest solos ever.  But it sounds so good its sick. Just bend the
outta everything and it'll sound right.  this should be really easy unless your a
beginner might be a little hard. but i doubt it.
e|-15b15b15b------15b15b15b------15b15b15b------15b----17b17b17b-------|
B|----------14b14b---------14b14b---------14b14b----------------14b14b-|
G|---------------------------------------------------------------------|
D|---------------------------------------------------------------------|
A|---------------------------------------------------------------------|
D|---------------------------------------------------------------------|

Play that till the end.  i dont know the rhythm to it...i think its the chorus. or
ill get it eventually.  if you know the song...please post it so i dont have to
figure it waste a whole day..and ive got things to do...but if i wanna tab the leads
it'll take forever cuz like i said, you cant hear them.  whatever.  any questions...
email me at MikeAndreoli@msn.com. i dont know how good it will do...seeing as the
whole is like comments and since i dont get much else i delete most of the stuff...
but i think ill your email....also...i hardly ever check my mail... but go for it any
way.  ill see it. Thanks! Mike Andreoli
Comments