Dead Poetic - Dimmer Light Chords & Tabs

 

Dimmer Light Chords & Tabs

Dead Poetic Chords & Tabs

Version: 1 Type: Tab 0 ratings
1 star 2 stars 3 stars 4 stars 5 stars
comments

Dimmer Light Tab

-----------------------------------------------------------------------------
			     DIMMER LIGHT - Dead Poetic
-----------------------------------------------------------------------------
Tabbed by: Jennifer
Email: sonic_speed_@hotmail.com

Tuning: Dropped D

This was the best I could make out.


Intro: x 4
E---------------------------------------------------------------------------|
B---------------------------------------------------------------------------|
G---9-----9-----9----------------------9-----9-----9------------9-----9-----|
D-----7-----7-----7-----9--9---9---------7-----7-----7------9-----7-----7---|
A-------7-----7-------9------9---9---------7-----7--------7---7-----7-------|
D-7-----------------9----------------7------------------7-------------------|

Verse: x 6
E------------------------------------------------------------------|
B------------------------------------------------------------------|
G-9-9-9-9---12-12-12-12---12-12--11-11-11--11--12-12-12-12---12-12-|
D-x-x-x-x----x--x--x--x----x--x---x--x--x---x---x--x--x--x----x--x-|
A-7-7-7-7---10-10-10-10---10-10---9--9--9---9--10-10-10-10---10-10-|
D-7-7-7-7---10-10-10-10---10-10---9--9--9---9--10-10-10-10---10-10-|

Fill:
E--------------------------------------|
B--------------------------------------|
G-12~-------11~-------7~------9~-------|
D--x---------x--------x-------x--------|
A-10~--------9~-------5~------7~-------|
D-10~--------9~-------5~------7~-------|

Verse Continued: x 6
E------------------------------------------------------------------|
B------------------------------------------------------------------|
G-9-9-9-9---12-12-12-12---12-12--11-11-11--11--12-12-12-12---12-12-|
D-x-x-x-x----x--x--x--x----x--x---x--x--x---x---x--x--x--x----x--x-|
A-7-7-7-7---10-10-10-10---10-10---9--9--9---9--10-10-10-10---10-10-|
D-7-7-7-7---10-10-10-10---10-10---9--9--9---9--10-10-10-10---10-10-|
[ Tab from: http://www.guitartabs.cc/tabs/d/dead_poetic/dimmer_light_tab.html ]
Chorus: x 2
E----------------------------------------------------------|
B----------------------------------------------------------|
G-9--9--9--9--5--5--5--5--7--9-x-9-12-12~--7--9-x-9-5-5~---|
D-x--x--x--x--x--x--x--x--x--x-x-x--x--x---x--x-x-x-x-x----|
A-7--7--7--7--3--3--3--3--5--7-x-7-10-10~--5--7-x-7-3-3~---|
D-7--7--7--7--3--3--3--3--5--7-x-7-10-10~--5--7-x-7-3-3~---|

Fill:
E------------------------------------------------------------|
B------------------------------------------------------------|
G-12--------12----12----12-14~--12--------12----12----12-14~-|
D------12------12----12-------------12------12----12---------|
A------------------------------------------------------------|
D------------------------------------------------------------|

E---------------------------------------------|
B---------------------------------------------|
G-12------12----12----12-14~-12------16~------|
D----12------12----12------------12-----------|
A---------------------------------------------|
D---------------------------------------------|

Bridge 1:  x 4
E----------------------------------------------|
B----------------------------------------------|
G-9---9-9--9-9--9-9---2--2-2--5-5-5-5--5-5-----|
D-x---x-x--x-x--x-x---x--x-x--x-x-x-x--x-x-----|
A-7---7-7--7-7--7-7---4--4-4--3-3-3-3--3-3-----|
D-7---7-7--7-7--7-7---4--4-4--3-3-3-3--3-3-----|

Chorus: x 2
E----------------------------------------------------------|
B----------------------------------------------------------|
G-9--9--9--9--5--5--5--5--7--9-x-9-12-12~--7--9-x-9-5-5~---|
D-x--x--x--x--x--x--x--x--x--x-x-x--x--x---x--x-x-x-x-x----|
A-7--7--7--7--3--3--3--3--5--7-x-7-10-10~--5--7-x-7-3-3~---|
D-7--7--7--7--3--3--3--3--5--7-x-7-10-10~--5--7-x-7-3-3~---|

I can't make out the second bridge, though it almost sounds like the chorus.
I'm not sure.

Fill:
E--------------------------------------------------------------|
B--------------------------------------------------------------|
G-12--------12----12----12-14~--12--------12-----12-----12-14~-|
D------12------12----12-------------12-------12-----12---------|
A--------------------------------------------------------------|
D--------------------------------------------------------------|

E---------------------------------------------|
B---------------------------------------------|
G-12------12----12----12-14~-12------16~------|
D----12------12----12------------12-----------|
A---------------------------------------------|
D---------------------------------------------|



| ~  vibrato
| x  Mute note
=============================================================================
Comments