Dead Poetic - Burgundy Chords & Tabs

 

Burgundy Chords & Tabs

Dead Poetic Chords & Tabs

Version: 2 Type: Bass Tab 0 ratings
1 star 2 stars 3 stars 4 stars 5 stars
comments

Burgundy Bass Tab

Tabbed By PodS

(The Short Legend a.k.a Weeman)

Emo Rox
__________________________________

For this you will need to drop D your bass

Verse

G----------------------------------|
D----------------------------------|
A----------------------------------|   x4
D--6-6-6-6-6-6--1/2-4-4-4-4-4-4----|
[ Tab from: http://www.guitartabs.cc/tabs/d/dead_poetic/burgundy_btab_ver_2.html ]
Bridge
G------------------------------|
D------------------------------|
A------------------------------|   x2
D-2-2-2-2-2-2-2-4-4-4-4-4-4-4--|

Chorus

G---------------------------------------|
D---------------------------------------|  x4
A---------------------------------------|
D-6-6-6-6-6-6-2-2-2-2-1-1-1-1-2-2-2-2---|

OUTRO (When Vox screams "I believed you!")
G------------------------------------|
D------------------------------------|
A------------------------------------|
D-3-3-3-3----------------------------|
Comments