Dead Poetic - Burgundy Chords & Tabs

 

Burgundy Chords & Tabs

Dead Poetic Chords & Tabs

Version: 1 Type: Bass Tab 0 ratings
1 star 2 stars 3 stars 4 stars 5 stars
comments

Burgundy Bass Tab

Artist:Dead Poetic
Song:Burgundy
Album:Four Wall Blackmail
Drop D Tuning
Submitted By: Stand Alone (projectwyze13@hotmail.com)

Verse (x4)
G------------------- 
D------------------- 
A------------------- 
D-4--6--1/2-------4-

Pre-Chorus (x4)
G-------------------- 
D-------------------- 
A-------------------- 
D-----2------------4- 
play this on the last time 


Chorus (x4)
G----------------------- 
D----------------------- 
A----------------------- 
D----6-----2-----1---2-- 
[ Tab from: http://www.guitartabs.cc/tabs/d/dead_poetic/burgundy_btab.html ]
Verse (x4)
Pre-Chorus (x4)
Chorus (x4)

Bridge (x 8)
G--------------------- 
D--------------------- 
A--------------------- 
D ----4--------------
only in the beginning of bridge

G---------------------------
D---------------------------
A---------------------------
D----6----1/2----1/2---4---- 
play this part on the last time

Chorus (x4)

Bridge 2 (x4)
G------------------------------- 
D------------------------------- 
A------------------------------- 
D ----6x----1x/2x----1x/2x--4---
Comments