Dead Poetic - August Winterman Chords & Tabs

 

August Winterman Chords & Tabs

Dead Poetic Chords & Tabs

Version: 1 Type: Tab 0 ratings
1 star 2 stars 3 stars 4 stars 5 stars
comments

August Winterman Tab

   
http://www.deadpoetic.com/
Artist: Dead Poetic
Title: August Winterman
Date: 7/20/03
Tabbed by: Josh Robinson
Tuning: D A D G B E 

This is a cool song. Figure out rhythm yourselves...

 Intro

 -----------------------------------------------------------------------------
 -----------------------------------------------------------------------------
 -------------------7---------------------------------------------------------
 ---9-------5-------5---------------------------------------------------------
 ---9-x-4---5-x-4---5-x-1-----------------------------------------------------
 ---9-------5-------5---------------------------------------------------------

 Pre Chorus
 
  -----------------------------------------------------------------------------
  -----------------------------------------------------------------------------
  -----------------------7-----------------------------------------------------
  ---9-------9-------5---5-----------------------------------------------------
  ---9-x-8---9-x-8---5---5-----------------------------------------------------
  ---9-------9-------5---5-----------------------------------------------------

 Chorus (PERFECT!!!... like yours...)

  -----------------------------------------------------------------------------
  -----------------------------------------------------------------------------
  ---7-------2---4-------------------------------------------------------------
  ---7-------2---4-------------------------------------------------------------
  ---5-x-2---0---2-x-2---------------------------------------------------------
  ---5-------0---2-------------------------------------------------------------
[ Tab from: http://www.guitartabs.cc/tabs/d/dead_poetic/august_winterman_tab.html ]
 Bridge 1
 
  -----------------------------------------------------------------------------
  -----------------------------------------------------------------------------
  -----------------------------------------------------------------------------
  ---9--------7-------5--------------------------------------------------------
  ---9-x-16---7-x-8---5-x-16---------------------------------------------------
  ---9--------7-------5--------------------------------------------------------

 Bridge 2

  -----------------------------------------------------------------------------
  -----------------------------------------------------------------------------
  -----------------------------------------------------------------------------
  ---9-0-0-0-0-9-9-7-7-9-9-9-9-9-9-9-------------------------------------------
  ---9-0-0-0-0-9-9-7-7-9-9-9-9-9-9-9-------------------------------------------
  ---9-0-0-0-0-9-9-7-7-9-9-9-9-9-9-9-------------------------------------------

 Bridge 3
 
  -----------------------------------------------------------------------------
  -----------------------------------------------------------------------------
  -----------------------------------------------------------------------------
  ---0-9-0-0-9-0-0-9-0-0-9-0-7-9-9-9-------------------------------------------
  ---0-9-0-0-9-0-0-9-0-0-9-0-7-9-9-9-------------------------------------------
  ---0-9-0-0-9-0-0-9-0-0-9-0-7-9-9-9-------------------------------------------

 Bridge 4
 
  -----------------------------------------------------------------------------
  -----------------------------------------------------------------------------
  -----------------------------------------------------------------------------
  ---0-9-9-9-x-x-0-0-0-9-x-x-9-9-9-9--5-7-7-7-x-x-5-7-7-7-x-5-7-7-7------------
  ---0-9-9-9-x-x-0-0-0-9-x-x-9-9-9-9--5-7-7-7-x-x-5-7-7-7-x-5-7-7-7------------
  ---0-9-9-9-x-x-0-0-0-9-x-x-9-9-9-9--5-7-7-7-x-x-5-7-7-7-x-5-7-7-7------------

 Outro
 
  -----------------------------------------------------------------------------
  -----------------------------------------------------------------------------
  -----------------------------------------------------------------------------
  ---9----7----5----7----9----7----5----7----9---------------------------------
  ---9----7----5----7----9----7----5----7----9---------------------------------
  ---9----7----5----7----9----7----5----7----9---------------------------------

 SONG ORDER

 VERSE: X12
 PRE CHORUS: X4
 CHORUS: X4
 VERSE: X5
 PRE CHORUS: X4
 CHORUS: X8
 BRIDGE 1: X4
 BRIDGE 2: X4
 BRIDGE 3: X4
 BRIDGE 4: X2
 OUTRO

 GO SUPPORT THIS BAND. THEY ARE GREAT... THANX ALOT...
Comments