Dead Poetic - August Winterman Chords & Tabs

 

August Winterman Chords & Tabs

Dead Poetic Chords & Tabs

Version: 1 Type: Bass Tab 0 ratings
1 star 2 stars 3 stars 4 stars 5 stars
comments

August Winterman Bass Tab

Artist:Dead Poetic
Song:August Winterman
Album:Four Wall Blackmail
Drop D Tuning
Submitted By: Stand Alone (projectwyze13@hotmail.com)

VERSE (x4)
G------------------
D------------------
A--9999--444--5---- 
D------------------
(Let the 5 Ring)

Repeat Verse Slower

Pre-Chorus is played by the second guitarist 
(Follow if you want)

G--14---14---14---14----------
D----12---12---12---12----12-- (let ring)
A-----------------------------
D-----------------------------
[ Tab from: http://www.guitartabs.cc/tabs/d/dead_poetic/august_winterman_btab.html ]
G--12---12---12---12-----------
D-----10---10---10---10----10-- (let ring)
A------------------------------
D------------------------------

CHORUS (x1)
G---------------------------
D---------------------------
A--5--7--4--5--7--9--7--4--5
D---------------------------


BRIDGE (x4)
G------------
D------------
A--9--7--5--7
D------------

Ending (x1)
G-------
D-------
A--9----          
D-------

G-------
D-------
A--7----             
D------

G------
D------
A--5---              
D------

OUTRO (x2) (Guitar 2 repeats the pre-chorus)  
G-----------------
D-----------------
A--9h--7h--5--7---
D-----------------
Comments