Dead Poetic - A Green Desire Chords & Tabs

 

A Green Desire Chords & Tabs

Dead Poetic Chords & Tabs

Version: 1 Type: Tab 0 ratings
1 star 2 stars 3 stars 4 stars 5 stars
comments

A Green Desire Tab

   
Artist: Dead Poetic
Title: A Green Desire
Album: Four Wall Blackmail (Comment... MOST EXCELLENT ALBUM)
Tabber: J. Robinson, Emo Elmo033088
Tuned to standard D (D-A-D-G-B-e)
Figure out rhythm, it's not hard at all. Very fast though.
And am I the only one who listens to these guys?

Intro
e ----------------------------------------------------------------------
B ----------------------------------------------------------------------
G -11-------------------------------------------------------------------
D -10--x4--7------5------0----------------------------------------------
A --9------7--x3--5--x3--0----------------------------------------------
D --9------7------5------0----------------------------------------------

Pre-Chorus
e ----------------------------------------------------------------------
B ----------------------------------------------------------------------
G ----------------------------------------------------------------------
D -11-11--11-11----11---11-11--11-11----11-----9-9--9-9----9----9-9-----
A --9--9---9--9-----9----9--9---9--9-----9-----7-7--7-7----7----7-7-----
D --9--9---9--9-----9----9--9---9--9-----9-----7-7--7-7----7----7-7-----

e ----------------------------------------------------------------------
B ----------------------------------------------------------------------
G ----------------------------------------------------------------------
D 9-9----9--------------------------------------------------------------
A 7-7----7--------------------------------------------------------------
D 7-7----7--------------------------------------------------------------
[ Tab from: http://www.guitartabs.cc/tabs/d/dead_poetic/a_green_desire_tab.html ]
Chorus *Let chords ring
e ----------------------------------------------------------------------
B ----------------------------------------------------------------------
G ----------------------------------------------------------------------
D --5-5*--------0-0*----------------------------------------------------
A --5-5---------0-0-----------------------------------------------------
D --5-5---------0-0-----------------------------------------------------

Bridge 1
e ----------------------------------------------------------------------
B ----------------------------------------------------------------------
G ----------------------------------------------------------------------
D --7-7--7-7--7-7--7-7--7-7-7-------------------------------------------
A --5-5--5-5--5-5--5-5--5-5-5-------------------------------------------
D --5-5--5-5--5-5--5-5--5-5-5-------------------------------------------

Bridge 2 *Let chords ring / End on chord 5 5 7
e ----------------------------------------------------------------------
B ----------------------------------------------------------------------
G ----------------------------------------------------------------------
D --7-7*------0-0*--11-11--9-9--7---------------------------------------
A --5-5-------0-0----9--9--7-7--5---------------------------------------
D --5-5-------0-0----9--9--7-7--5---------------------------------------

Bridge 3

e ----------------------------------------------------------------------
B ----------------------------------------------------------------------
G 11--11---9---7--------------------------------------------------------
D -9--11---9---7--------------------------------------------------------
A -9--------------------------------------------------------------------
D -9--------------------------------------------------------------------

Intro x6
Pre-Chorus X1
Chorus X4
Intro X4
Pre-Chorus X1
Chorus X4
Bridge 1 X4
Bridge 2 X2
Bridge 3 X9
Intro X4
Pre-Chorus X2
Comments