Dead Or Alive - You Spin Me Right Round Chords & Tabs

 

You Spin Me Right Round Chords & Tabs

Dead Or Alive Chords & Tabs

Version: 1 Type: Tab

You Spin Me Right Round Tab

   
verse
i get to know your name..

e---------------------------------------------------------|
b---------------------------------------------------------|
g---------------------------------------------------------|
d-5-55-5-5-55-5-5-55/88/10-10-1010-10-10-10-1010/8--------|
a-5-55-5-5-55-5-5-55/88/10-10-1010-10-10-10-1010/8--------|       X2
e-3-33-3-3-33-3-3-33/66/8---8-8--8--8-8---8--8-8/6--------|

pre-chorus
all i know is that to me...
[ Tab from: http://www.guitartabs.cc/tabs/d/dead_or_alive/you_spin_me_right_round_tab.html ]
e------------------------------------------|
b------------------------------------------|
g------------------------------------------|
d-5-5-55-5-8-8-88-8-10-10-1010-10-8-8-8-88-|
a-5-5-55-5-8-8-88-8-10-10-1010-10-8-8-8-88-|
e-3-3-33-3-6-6-66-6--8--8--8-8--8-6-6-6-66-|

chorus
you spin me right round...

e----------------------------|
b----------------------------|
g----------------------------|
d-5-5-55-5-5-5-5-8-8-8-1-1-1-|
a-5-5-55-5-5-5-5-8-8-8-1-1-1-|
e-3-3-33-3-3-3-3-6-6-6-1-1-1-|

hehe this song is for kg