Dead Milkmen - Surfing Cow Chords & Tabs

 

Surfing Cow Chords & Tabs

Dead Milkmen Chords & Tabs

Version: 1 Type: Bass Tab 0 ratings
1 star 2 stars 3 stars 4 stars 5 stars
comments

Surfing Cow Bass Tab

   
-----------------------------------------------------------------------------
			   SONG NAME - Band Name
-----------------------------------------------------------------------------

Tabbed By : Animeguy!
e-mail:

Tuning: normal tuning

riff 1 (verse): 

G|---------------------------------------------------------------------------|
D|-----------2-3-2-----------------------------------------------------------|
A|-------2-3-------3-2-------------------------------------------------------|
E|-0-2-3---------------------------------------------------------------------|

riff 2 (bridge):
[ Tab from: http://www.guitartabs.cc/tabs/d/dead_milkmen/surfing_cow_btab.html ]
G|---------------2-3-2-------------------------------------------------------|
D|-----------2-3-------3-2---------------------------------------------------|
A|-------2-3---------------3-2-----------------------------------------------|
E|-0-2-3-----------------------3-2-------------------------------------------|

riff 3 (second bridge)

G|---------------------------------------------------------------------------|
D|---------------------------------------------------------------------------|
A|---------------------------------------------------------------------------|
E|-0-0-0-0-0-0-0-0-0-0-0-0-0-0-0-0-0-0-0-0-0-0-0-0-0-0-0-0-0-0-0-0-----------|


| /  slide up
| \  slide down
| h  hammer-on
| p  pull-off
| ~  vibrato
| +  harmonic
| x  Mute note
=============================================================================
Comments