Dead Milkmen - Punk Rock Girl Chords & Tabs

 

Punk Rock Girl Chords & Tabs

Dead Milkmen Chords & Tabs

Version: 1 Type: Tab 0 ratings
1 star 2 stars 3 stars 4 stars 5 stars
comments

Punk Rock Girl Tab

The tabs already on here have the chords perfect, but I couldnt find a tab for the solo
anywhere on the internet so I came up with this. I doubt it's perfect but it's definitley
a starting point for anybody that has no clue how to play this solo.

tabbed out by clashcityrqcker
any comments/questions/corrections email me at jacobv@mac.com

e-----------------------------------------|
B-------------------6---------------------|
G--5--3-3--5--3-3-----5-3-2--3-2---2h3-2--|
D--------------------------------5--------|
A-----------------------------------------|
E-----------------------------------------|

[ Tab from: http://www.guitartabs.cc/tabs/d/dead_milkmen/punk_rock_girl_tab.html ]
e-----------------------------------------|
B------------------6----------------------|
G--5--3-3--5--3-------5-3-2-3--2----------|
D--------------------------------5-3------|
A-----------------------------------------|
E-----------------------------------------|


e-----------------------------------------|
B-----------------------------------------|
G-----------------------------------------|
D--5s7--7-3---3--5s7-7-7-7-7--5-3-----3---|
A-----------5-----------------------5-----|
E-----------------------------------------|

e--5-3-1------1-----1-----------1---------------|
B--------1s3--1--1--1------1----1--1------------|
G-------------2-(2)-2--0h2---0--2--2---3-2-0----|
D-------------3-----3-----------3----3-------3--|
A-----------------------------------------------|
E-----------------------------------------------|

then continue with the next chord proggression (just C and G I believe)
Comments