Dead Milkmen - Beach Song Chords & Tabs

 

Beach Song Chords & Tabs

Dead Milkmen Chords & Tabs

Version: 1 Type: Bass Tab 0 ratings
1 star 2 stars 3 stars 4 stars 5 stars
comments

Beach Song Bass Tab

This is a easy song, shouldnt take you long to get. This is also a really cool ine thats pretty fun to play!

VERSE
[ Tab from: http://www.guitartabs.cc/tabs/d/dead_milkmen/beach_song_btab.html ]
G---------------------------|--------------------------| 
D-------5-4-5--7-6-7--3-2-3-|-------5-4-5--7-6-7--3----| 
A-3-2-3---------------------|-3-2-3--------------------| 
E---------------------------|--------------------------| 

CHORUS 

G-----------------|-----------------| 
D-----------------|-----------------| 
A-----------------|----------3--3-3-| 
E-3-3-3-3-3-3-3-3-|-3-3-3-3---------| 


drunk
Comments