Dead Member - And Then She Cried Chords & Tabs

 

And Then She Cried Chords & Tabs

Dead Member Chords & Tabs

Version: 1 Type: Tab 0 ratings
1 star 2 stars 3 stars 4 stars 5 stars
comments

And Then She Cried Tab

DEAD MEMBER

"And Then She Cried"
As heard on the "She" single.

Words & music by Neil T. Wiger (as Trey Carrol)

Copyright 2001 T-Independent Film & Records

e:---------------------------------------------------------------------------|
B:--(2)----------------------------------------------------------------------|
G:---2-----------------------------------------------------------------------|
D:---2----------------2----4--x-2x-3x-4--x-x---------------------------------|
A:---0------0---2-3-4---4p04--x-2x-3x-4--x-x---------------------------------|
E:-------------------------2--x-0x-1x-2--x-x---------------------------------|
[ Tab from: http://www.guitartabs.cc/tabs/d/dead_member/and_then_she_cried_tab.html ]
e:---------------------------------------------------------------------------|
B:--(2)----------------------------------------------------------------------|
G:---2-----------------------------------------------------------------------|
D:---2----------------2----2/4b-2x-3x-4--x-x---------------------------------|
A:---0------0---2-3-4---4p0-----2x-3x-4--x-x---------------------------------|
E:------------------------------0x-1x-2--x-x---------------------------------|

e:---------------------------------------------------------------------------|
B:---------------------------------------------------------------------------|
G:---2/7---------------------------------------------------------------------|
D:---2/7-77777777777/(6)/5/4-----4-4-4-4-4-2---------------------------------|
A:---2/5-55555555555/(4)/3/2-----2-2-2-2-2-0---------------------------------|
E:---------------------------------------------------------------------------|

e:---------------------------------------------------------------------------|
B:---------------------------------------------------------------------------|
G:---3-33333333--7/6--0-5-55555555--7/6--0-3-33333333--------2---------------|
D:---3-33333333--5/4--0-5-55555555--5/4--0-3-33333333--------2---------------|
A:---1-11111111---------3-33333333---------1-11111111--4-2---0---------------|
E:---------------------------------------------------------3-----------------|

www.deadmember.com

transcrobed by N. Wiger webmaster@aladamson.com
Comments