Dead Kennedys - When Ya Get Drafted Chords & Tabs

 

When Ya Get Drafted Chords & Tabs

Dead Kennedys Chords & Tabs

Version: 5 Type: Tab 0 ratings
1 star 2 stars 3 stars 4 stars 5 stars
comments

When Ya Get Drafted Tab

   
Dead Kennedys
When Ya Get Drafted
Tabbed by soten355, soten355@gmail.com

Tuning: Standard (EADGBE)

(INTRO)
|-----------------------------------------------------|
|-----------------------------------------------------|
|---------------9999--------------9999-------12111211-|
|--1111-99-1111-9999-1111-99-1111-9999-99999-12111211-|
|--1111-99-1111-7777-1111-99-1111-7777-99999-10-910-9-|
|---9-9-77--9-9-------9-9-77--9-9------77777----------|
(END OF INTRO)

(VERSE)
|-------------------------------------------------|
|-------------------------------------------------|
|-----------------12111211----------------12111211|
|--99999444447777712111211-99999444447777712111211|
|--99999444447777710-910-9-99999444447777710-910-9|
|--777772222255555---------777772222255555--------|

"War is here and it's back in style..."

|------------------------------------------|
|------------------------------------------|
|------------------------------------66666-|
|-999994444477777-2-7-99999444447777766666-|
|-999994444477777-2-7-99999444447777744444-|
|-777772222255555-0-5-777772222255555------|
(END OF VERSE)

(RIFF A)
|------------------------------------------------------------------|
|------------------------------------------------------------------|
|------------------------------------------------------------------|
|------------------------------------------------------------------|
|------------------------------------------------------------------|
|--2-2-3-0-2-2-3-0-2-2-3-0-2222222-2-2-3-0-2-2-3-0-2-2-3-0-2222222-|
(END OF RIFF A)

[ Tab from: http://www.guitartabs.cc/tabs/d/dead_kennedys/when_ya_get_drafted_tab_ver_5.html ]
|--------------------------------------|
|--------------------------------------|
|---------------9999--------------9999-|
|--1111-99-1111-9999-1111-99-1111-9999-|
|--1111-99-1111-7777-1111-99-1111-7777-|
|---9-9-77--9-9-------9-9-77--9-9------|

Play VERSE again

Play RIFF A again

|---------------------------------------------------------|
|---------------------------------------------------------|
|---------------------------------------------------------|
|---------------------------------------------------------|
|--2-2-3-0-2-2-3-0-2-2-3-0-2222222------------------------|
|---------------------------------2-2-3-0-2-2-3-0-2-2-3-0-|

(SOLO)
|-----15-14----13-----12--------15-14----13----12~--|
|--12-------15-----14-----13-12-------15----14------|
|---------------------------------------------------|
|---------------------------------------------------|
|---------------------------------------------------|
|---------------------------------------------------|

|-----18-17----16-----15--------18-17----1818181818-|
|--15-------18-----17-----16-15-------17-1717171717-|
|---------------------------------------------------|
|---------------------------------------------------|
|---------------------------------------------------|
|---------------------------------------------------|
(END OF SOLO)

|---------------------------------------------------------------|
|---------------------------------------------------------------|
|---------------------------------------------------------------|
|----------------------------------------------------------44444|
|----------------------------------------------------------44444|
|--2-2-3-0-2-2-3-0-2-2-3-0-2222222-2-2-3-0-2-2-3-0-2-2-3-0-22222|

That's basically it, the solo should be correct, so enjoy! peace!
Comments