Dead Kennedys - When Ya Get Drafted Chords & Tabs

 

When Ya Get Drafted Chords & Tabs

Dead Kennedys Chords & Tabs

Version: 3 Type: Tab 0 ratings
1 star 2 stars 3 stars 4 stars 5 stars
comments

When Ya Get Drafted Tab

e:---------------------------------------------------*this is bridge and intro
B:---------------------------------------------------  idiots
G:---------------------------------------------------
D:77-55-77-101077-55-77-101077-55-77-1010-----131312
A:55-33-55/8-8-55-33-55/8-8-55-33-55/8-8-1010-1111\10
E:----------------------------------------8-8---------
verse
e:-------------------------------------*repeat until verse ends fascists
B:-------------------------------------
G:-------------------------------------
D:777777-----------------1313\121313\12
A:55555577777/1010101010-1111\101111\10
E:------55555/8-8-8-8-8----------------
[ Tab from: http://www.guitartabs.cc/tabs/d/dead_kennedys/when_ya_get_drafted_tab_ver_3.html ]
chorus          chorus before solo
e:-------------Ie:----------------------------------------------------
B:-------------IB:----------------------------------------------------
G:-------------IG:----------------------------------------------------
D:-------------ID:---------------------------001-001-001-0------------
A:001-001-001-0IA:001-001-001-0-001-001-001-0---3---3---3-001-001-001-
E:---3---3---3-IE:---3---3---3-----3---3---3-----------------3---3---3

solo
e:-----------------------------------------15-1918-15-18-15-17-1515-1918-15-17-15-19
B:15-1918-15-18-15-17-1515-1918-15-17-15-18-----------------------------------------
G:----------------------------------------------------------------------------------
D:----------------------------------------------------------------------------------
A:----------------------------------------------------------------------------------
E:----------------------------------------------------------------------------------
*if it doesn't sound right maybe you're not using heavy chorus over the distortion
like they did.

after the solo go back to chorus and your done

thanx:ikillchildren
Comments