Dead Kennedys - Well Paid Scientist Chords & Tabs

 

Well Paid Scientist Chords & Tabs

Dead Kennedys Chords & Tabs

Version: 1 Type: Tab 0 ratings
1 star 2 stars 3 stars 4 stars 5 stars
comments

Well Paid Scientist Tab

   
By: Rambozo (Not by RBM90120 all credit to Rambozo)

e-|---------------------------------------------------------------------|
B-|---------------------------------------------------------------------|
G-|---------------------------------------------------------------------|
D-|---------------------------------------------------------------------|
A-|-7-7-4-4-4-4-4-4-7-7-5-5-5-5-5-5-7-7-4-4-4-4-4-4-7-7-5-5-5-5-5-5-7-7-|
E-|-5-5-2-2-2-2-2-2-5-5-3-3-3-3-3-3-5-5-2-2-2-2-2-2-5-5-3-3-3-3-3-3-5-5-|

e-|-------------------------------------------------------------|
B-|-------------------------------------------------------------|
G-|-------------------------------------------------------------|
D-|-------------------------------------------------------------|
A-|-4-4-4-4-4-4-7-7-5-5-5-5-5-5-7-7-4-4-4-4-4-4-7-7-5-5-5-5-5-5-|
E-|-2-2-2-2-2-2-5-5-3-3-3-3-3-3-5-5-2-2-2-2-2-2-5-5-3-3-3-3-3-3-|

e-|-------------------------------------------------------------|
B-|-------------------------------------------------------------|
G-|-------------------------------------------------------------|
D-|-------------------------------------------------------------|
A-|-4-4-4-4-4-4-7-7-5-5-5-5-5-5-7-7-4-4-4-4-4-4-7-7-5-5-5-5-5-5-|
E-|-2-2-2-2-2-2-5-5-3-3-3-3-3-3-5-5-2-2-2-2-2-2-5-5-3-3-3-3-3-3-|

e-|-------------------------------------|
B-|-------------------------------------|
G-|-------------------------------------|
D-|-5-5-5-5-------------5-5-5-5---------|
A-|-3-3-3-3-9-7-9-4-7-9-3-3-3-3-9-7-9-4-|
E-|---------7-5-7-2-5-7---------7-5-7-2-|

e-|-------------------------------------------------------------|
B-|-------------------------------------------------------------|
G-|-------------------------------------------------------------|
D-|-------------------------------------------------------------|
A-|-4-4-4-4-4-4-7-7-5-5-5-5-5-5-7-7-4-4-4-4-4-4-7-7-5-5-5-5-5-5-|
E-|-2-2-2-2-2-2-5-5-3-3-3-3-3-3-5-5-2-2-2-2-2-2-5-5-3-3-3-3-3-3-|

e-|-------------------------------------------------------------|
B-|-------------------------------------------------------------|
G-|-------------------------------------------------------------|
D-|-------------------------------------------------------------|
A-|-4-4-4-4-4-4-7-7-5-5-5-5-5-5-7-7-4-4-4-4-4-4-7-7-5-5-5-5-5-5-|
E-|-2-2-2-2-2-2-5-5-3-3-3-3-3-3-5-5-2-2-2-2-2-2-5-5-3-3-3-3-3-3-|

e-|-------------------------------------|
B-|-------------------------------------|
G-|-------------------------------------|
D-|-5-5-5-5-------------5-5-5-5---------|
A-|-3-3-3-3-9-7-9-4-7-9-3-3-3-3-9-7-9-4-|
E-|---------7-5-7-2-5-7---------7-5-7-2-|

e-|----------------------|
B-|----------------------|
G-|----------------------|
D-|-11-7-9-11-7-9-11-7-9-|
A-|--9-5-7--9-5-7--9-5-7-|
E-|----------------------|
[ Tab from: http://www.guitartabs.cc/tabs/d/dead_kennedys/well_paid_scientist_tab.html ]
e-|---------------------------------------------------|
B-|---------------------------------------------------|
G-|---------------------------------------------------|
D-|-6-6-6-5-4-3-6-6-6-5-4-3-6-6-6-5-4-3-6-6-6---6-6-6-|
A-|-4-4-4-3-2-1-4-4-4-3-2-1-4-4-4-3-2-1-4-4-4---4-4-4-|
E-|---------------------------------------------------|

e-|---------------------------------------------------|
B-|---------------------------------------------------|
G-|---------------------------------------------------|
D-|-6-6-6-5-4-3-6-6-6-5-4-3-6-6-6-5-4-3-6-6-6--5-4-3--|
A-|-4-4-4-3-2-1-4-4-4-3-2-1-4-4-4-3-2-1-4-4-4--3-2-1--|
E-|---------------------------------------------------|

e-|---------------------------------------------------|
B-|---------------------------------------------------|
G-|---------------------------------------------------|
D-|-6-6-6-5-4-3-6-6-6-5-4-3-6-6-6-5-4-3-6-6-6--5-4-3--|
A-|-4-4-4-3-2-1-4-4-4-3-2-1-4-4-4-3-2-1-4-4-4--3-2-1--|
E-|---------------------------------------------------|

e-|-----------------------------------------------|
B-|-----------------------------------------------|
G-|-----------------------------------------------|
D-|-6-5-4-5-6-5-4-5-6-5-4-5-----------------------|
A-|-4-3-2-3-4-3-2-3-4-3-2-3-4-4-7-7-4-4-7-7-4-4-7-|
E-|-------------------------2-2-5-5-2-2-5-5-2-2-5-|

e-|-------------------------------------------------------------|
B-|-------------------------------------------------------------|
G-|-------------------------------------------------------------|
D-|-------------------------------------------------------------|
A-|-4-4-4-4-4-4-7-7-5-5-5-5-5-5-7-7-4-4-4-4-4-4-7-7-5-5-5-5-5-5-|
E-|-2-2-2-2-2-2-5-5-3-3-3-3-3-3-5-5-2-2-2-2-2-2-5-5-3-3-3-3-3-3-|

e-|-------------------------------------------------------------|
B-|-------------------------------------------------------------|
G-|-------------------------------------------------------------|
D-|-------------------------------------------------------------|
A-|-4-4-4-4-4-4-7-7-5-5-5-5-5-5-7-7-4-4-4-4-4-4-7-7-5-5-5-5-5-5-|
E-|-2-2-2-2-2-2-5-5-3-3-3-3-3-3-5-5-2-2-2-2-2-2-5-5-3-3-3-3-3-3-|

e-|-------------------------------------|
B-|-------------------------------------|
G-|-------------------------------------|
D-|-5-5-5-5-------------5-5-5-5---------|
A-|-3-3-3-3-9-7-9-4-7-9-3-3-3-3-9-7-9-4-|
E-|---------7-5-7-2-5-7---------7-5-7-2-|

e-|----------------------------------|
B-|----------------------------------|
G-|----------------------------------|
D-|-6-5-4-5-6-5-4-5-6-5-4-5-6-5-4-5--|
A-|-4-3-2-3-4-3-2-3-4-3-2-3-4-3-2-3--|
E-|----------------------------------|

e-|---------------------------------------------------|
B-|---------------------------------------------------|
G-|---------------------------------------------------|
D-|-6-6-6-5-4-3-6-6-6-5-4-3-6-6-6-5-4-3-6-6-6--5-4-3--|
A-|-4-4-4-3-2-1-4-4-4-3-2-1-4-4-4-3-2-1-4-4-4--3-2-1--|
E-|---------------------------------------------------|
Comments