Dead Kennedys - Too Drunk To Fuck Chords & Tabs

 

Too Drunk To Fuck Chords & Tabs

Dead Kennedys Chords & Tabs

Version: 3 Type: Tab 0 ratings
1 star 2 stars 3 stars 4 stars 5 stars
comments

Too Drunk To Fuck Tab

Artist: Dead Kennedys
Song: Too Drunk To F*ck
Album: Give Me Convinience Or Give Me Death (1982)
Written By: Dead Kennedys

Intro
Guitar One
(Distortion)
---------------------------------------------------------|
---------------------------------------------------------|
---------------------------------------------------------|
---------------------------------------------------------|
---3-X-5-6-5-3------3-5-5-3-----3-X-5-6-5-3------3-5-5-3-|
5--------------5-5-----------5--------------5-5----------|

---------------------------------------------------------|
---------------------------------------------------------|
---------------------------------------------------------|
---------------------------------------------------------|
---3-X-5-6-5-3------3-5-5-3-----3-X-5-6-5-3------3-5-5-3-|
5--------------5-5-----------5--------------5-5----------|

++++
---------------------------------------------------------|
---------------------------------------------------------|
---------------------------------------------------------|
---------------------------------------------------------|
---3-X-5-6-5-3------3-5-5-3-----3-X-5-6-5-3------3-5-5-3-|
5--------------5-5-----------5--------------5-5----------|

---------------------------------------------------------|
---------------------------------------------------------|
---------------------------------------------------------|
---------------------------------------------------------|
---3-X-5-6-5-3------3-5-5-3-----3-X-5-6-5-3------3-5-5-3-|
5--------------5-5-----------5--------------5-5----------|

Verse
PM_______________________________________________________
---------------------------------------------------------|
---------------------------------------------------------|
---------------------------------------------------------|
---------------------------------------------------------|
---3-X-5-6-5-3------3-5-5-3-----3-X-5-6-5-3------3-5-5-3-|
5--------------5-5-----------5--------------5-5----------|

PM_______________________________________________________
---------------------------------------------------------|
---------------------------------------------------------|
---------------------------------------------------------|
---------------------------------------------------------|
---3-X-5-6-5-3------3-5-5-3-----3-X-5-6-5-3------3-5-5-3-|
5--------------5-5-----------5--------------5-5----------|

------------------------------------------------------------------|
------------------------------------------------------------------|
------------------------------------------------------------------|
------------------------------------------------------------------|
3---3-3-3-3-3-3-5---3-5-5---3-2-----3-X-5-6-5-3------3-5-5-3-5-3--|
---------------------------------5---------------5-5--------------|

PM_______________________________________________________
---------------------------------------------------------|
---------------------------------------------------------|
---------------------------------------------------------|
---------------------------------------------------------|
---3-X-5-6-5-3------3-5-5-3-----3-X-5-6-5-3------3-5-5-3-|
5--------------5-5-----------5--------------5-5----------|

PM_______________________________________________________
---------------------------------------------------------|
---------------------------------------------------------|
---------------------------------------------------------|
---------------------------------------------------------|
---3-X-5-6-5-3------3-5-5-3-----3-X-5-6-5-3------3-5-5-3-|
5--------------5-5-----------5--------------5-5----------|

                      ^________(Bend Up 1/2)
------------------------------------------------------------3-3-3--|
------------------------------------------------------------3-3-3--|
------------------------------------------------------------4-4-4--|
------------------------------------------------------------5-5-5--|
3---3-3-3-3-3-3-5---3-5-5---5-3-----3-X-5-6-5-3-------3-5-5-5-5-5--|
---------------------------------5---------------5-5--------3-3-3--|

Chorus
Guitar One
0-------------------0---0-0-0-3-3-3-------------------0---0-0-0-3-3-3-|
0-------------------0---0-0-0-3-3-3-------------------0---0-0-0-3-3-3-|
1-------------------1---1-1-1-4-4-4-------------------1---1-1-1-4-4-4-|
2-------------------2---2-2-2-5-5-5-------------------2---2-2-2-5-5-5-|
2-------------------2---2-2-2-5-5-5-------------------2---2-2-2-5-5-5-|
0-------------------0---0-0-0-3-3-3-------------------0---0-0-0-3-3-3-|

Guitar Two
(Disortion)                                              ~~
--------------------16-----16-16----------------------11\--8-----8----|
--------------------15-----15-15--------------------------------------|
--------------------16-----16-16--------------------------------------|
----------------------------------------------------------------------|
----------------------------------------------------------------------|
----------------------------------------------------------------------|

Guitar One
0-----0-3-3-3-0-----0-3-3-3-0-----1-1-1---2-2-2---8--8--8--8--8----|
0-----0-3-3-3-0-----0-3-3-3-0-----1-1-1---2-2-2---8--8--8--8--8----|
1-----1-4-4-4-1-----1-4-4-4-1-----2-2-2---3-3-3---9--9--9--9--9----|
2-----2-5-5-5-2-----2-6-6-6-2-----3-3-3---4-4-4---10-10-10-10-10---|
2-----2-5-5-5-2-----2-5-5-5-2-----3-3-3---4-4-4---10-10-10-10-10---|
0-----0-3-3-3-0-----0-3-3-3-0-----1-1-1---2-2-2---8--8--8--8--8----|

Guitar Two
 ____________________descrese volume then stop where ___ ends
8-------------------8---------------------------------------------|
------------------------------------------------------------------|
------------------------------------------------------------------|
------------------------------------------------------------------|
------------------------------------------------------------------|
------------------------------------------------------------------|

Go Back To The ++++ in the Intro and repeat the Verse and Chours

End Of Second Chorus
8---8----8--8-----8--8---|
8---8----8--8-----8--8---|
9---9----9--9-----9--9---|
10--10---10-10----10-10--|
10--10---10-10----10-10--|
8---8----8--8-----8--8---|

Interlude/Bridge
8-----8----8--8--|
8-----8----8--8--|
9-----9----9--9--|
10----10---10-10-|
10----10---10-10-|
8-----8----8--8--|

8-----8----8--8--|
8-----8----8--8--|
9-----9----9--9--|
10----10---10-10-|
10----10---10-10-|
8-----8----8--8--|

8-----8----8--8--|
8-----8----8--8--|
9-----9----9--9--|
10----10---10-10-|
10----10---10-10-|
8-----8----8--8--|

8-----8----8--8--|
8-----8----8--8--|
9-----9----9--9--|
10----10---10-10-|
10----10---10-10-|
8-----8----8--8--|

8-----8--10---10-11---11-10-11-10-|
8-----8--10---10-11---11-10-11-10-|
9-----9--11---11-12---12-11-12-11-|
10----10-12---12-13---13-12-13-12-|
10----10-12---12-13---13-12-13-12-|
8-----8--10---10-11---11-10-11-10-|
[ Tab from: http://www.guitartabs.cc/tabs/d/dead_kennedys/too_drunk_to_fuck_tab_ver_3.html ]
Guitar One
11-8----8-----8--------8---8--10---10-11---11-10-11-10--8----8---8--8--8--8--|
11-8----8-----8--------8---8--10---10-11---11-10-11-10--8----8---8--8--8--8--|
12-9----9-----9--------9---9--11---11-12---12-11-12-11--9----9---9--9--9--9--|
13-10---10----10-------10--10-12---12-13---13-12-13-12--10---10--10-10-10-10-|
13-10---10----10-------10--10-12---12-13---13-12-13-12--10---10--10-10-10-10-|
11-8----8-----8--------8---8--10---10-11---11-10-11-10--8----8---8--8--8--8--|

Guitar Two
-------------11\8---8----8-------------8--------------------------|
------------------------------------------------------------------|
------------------------------------------------------------------|
------------------------------------------------------------------|
------------------------------------------------------------------|
------------------------------------------------------------------|

Guitar One
-------------------------------------------------------------------------------------------|
-------------------------------------------------------------------------------------------|
-------------------------------------------------------------------------------------------|
-------------------------------------------------------------------------------------------|
-------------------------------------------------------------------------------------------|
5----5--5--3--5---3---5----5--5--3--5---3---5----5--5--3--5---3---5----5--5--5--3--5---3---|

--------------------------------------------------------------------------------------------|
7-----8--8-----5----------------------------------------------------7-----5-----------------|
7-----8--8-----5----------------------------------------------------7-----5-----------------|
7-----8--8-----5----------------------------------------------------7-----5-----------------|
5-----6--6-----3----------------------------------------------------5-----3------------3----|
--------------------5----5--5--3--5---3----5----5--5--3--5---5---3------------3--5--3-----5-|

---------3--3--3--2-2---8---8-----8--X-------------------------------------------------------|
---------3--3--3--2-2---8---8-----8--X-------------------------------------------------------|
---------4--4--4--3-3---9---9-----9--X-------------------------------------------------------|
---------5--5--5--4-4---10--10----10-X-------------------------------------------------------|
---------5--5--5--4-4---10--10----10-X------3-----5-6-5-3-----3-5-5-3-5-3------3-----5-6-5-3-|
------5--3--3--3--2-2---8---8-----8--X--5------X----------5-5--------------5------X----------|

--------------------------------------------------------------------------------------|
--------------------------------------------------------------------------------------|
--------------------------------------------------------------------------------------|
--------------------------------------------------------------------------------------|
----3-5-5-3-5-3------5---7-8-7-5------5-7-7-5-7-5------5---7-8-7-5------5-7-7-5-7-5---|
5-5--------------7-----X----------7-7--------------7-----X----------7-7---------------|

Verse
-------------------------------------------------------------------------------------------|
-------------------------------------------------------------------------------------------|
-----------------------------------------------------------------------------------1/2-----|
-----------------------------------------------------------------------------------/\------|
---5---7-8-7-5-----5-7-7-5-7-5-----5---7-8-7-5-----5-7-7-5-7-5-5--5--5-5-5-5-7-7-5-7-7---7-|
7----X---------7-7--------------7----X---------7-7-----------------------------------------|

----------------------------------------------------------------------------------------------|
----------------------------------------------------------------------------------------------|
----------------------------------------------------------------------------------------------|
----------------------------------------------------------------------------------------------|
---5-X-7-8-7-5-----5-7-7-5-7-5----5-X-7-8-7-5-----5-7-7-5-7-5-----5-X-7-8-7-5-----5-7-7-5-7-5-|
7--------------7-7--------------7-------------7-7--------------7--------------7-7-------------|

-------------------------------------------------------5-5-5-|
-------------------------------------------------------5-5-5-|
---------------------1/2-------------------------------6-6-6-|
---------------------/\--------------------------------7-7-7-|
5--5-5-5-5-5-5-7-7-5-7-7--7-----5-X-7-8-7-5-----5-7----7-7-7-|
-----------------------------7--------------7-7--------5-5-5-|

Chorus
2-------------2---2-2-2-5-5-5-2-------------2---2-2-2-5-5-5-2-------------2-5-5-5-|
2-------------2---2-2-2-5-5-5-3-------------2---2-2-2-5-5-5-2-------------2-5-5-5-|
3-------------3---3-3-3-6-6-6-4-------------3---3-3-3-6-6-6-3-------------3-6-6-6-|
4-------------4---4-4-4-7-7-7-4-------------4---4-4-4-7-7-7-4-------------4-7-7-7-|
4-------------4---4-4-4-7-7-7-4-------------4---4-4-4-7-7-7-4-------------4-7-7-7-|
2-------------2---2-2-2-5-5-5-2-------------2---2-2-2-5-5-5-2-------------2-5-5-5-|

2-------------2-5-5-5-2-------------2------3-3-3----4-4-4----10----10-|
2-------------2-5-5-5-2-------------2------3-3-3----4-4-4----10----10-|
3-------------3-6-6-6-3-------------3------4-4-4----5-5-5----11----11-|
4-------------4-7-7-7-4-------------4------5-5-5----6-6-6----12----12-|
4-------------4-7-7-7-4-------------4------5-5-5----6-6-6----12----12-|
2-------------2-5-5-5-2-------------2------3-3-3----4-4-4----10----10-|

2------3-3-3----4-4-4----10----10-2-----3-3-3----4-4-4----10-10-10-10-10-|
2------3-3-3----4-4-4----10----10-2-----3-3-3----4-4-4----10-10-10-10-10-|
3------4-4-4----5-5-5----11----10-3-----4-4-4----5-5-5----11-11-11-11-11-|
4------5-5-5----6-6-6----12----10-4-----5-5-5----6-6-6----12-12-12-12-12-|
4------5-5-5----6-6-6----12----10-4-----5-5-5----6-6-6----12-12-12-12-12-|
2------3-3-3----4-4-4----10----10-2-----3-3-3----4-4-4----10-10-10-10-10-|

Outro
10-10-10--8--8--8--8--8-10-10-10/13----10-12-|
10-10-10--8--8--8--8--8-10-10-10/13----10-12-|
11-11-11--9--9--9--9--9-11-11-11/14----11-13-|
12-12-12-10-10-10-10-10-12-12-12/15----12-14-|
12-12-12-10-10-10-10-10-12-12-12/15----12-14-|
10-10-10--8--8--8--8--8-10-10-10/13----10-12-|

10-10-10--8--8--8--8--8-10-10-10/13----10-12-|
10-10-10--8--8--8--8--8-10-10-10/13----10-12-|
11-11-11--9--9--9--9--9-11-11-11/14----11-13-|
12-12-12-10-10-10-10-10-12-12-12/15----12-14-|
12-12-12-10-10-10-10-10-12-12-12/15----12-14-|
10-10-10--8--8--8--8--8-10-10-10/13----10-12-|

10-10-10--8--8--8--8--8-10-10-10/13----10-12-|
10-10-10--8--8--8--8--8-10-10-10/13----10-12-|
11-11-11--9--9--9--9--9-11-11-11/14----11-13-|
12-12-12-10-10-10-10-10-12-12-12/15----12-14-|
12-12-12-10-10-10-10-10-12-12-12/15----12-14-|
10-10-10--8--8--8--8--8-10-10-10/13----10-12-|

10--------------------10--------------------10--------------------|
10--------------------10--------------------10--------------------|
11--------------------11--------------------11--------------------|
12--------------------12--------------------12--------------------|
12--------------------12--------------------12--------------------|
10--------------------10--------------------10--------------------|

thats it! enjoy
Comments