Dead Kennedys - Too Drunk To Fuck Chords & Tabs

 

Too Drunk To Fuck Chords & Tabs

Dead Kennedys Chords & Tabs

Version: 1 Type: Tab 0 ratings
1 star 2 stars 3 stars 4 stars 5 stars
comments

Too Drunk To Fuck Tab

#----------------------------------PLEASE NOTE--------------------------------#
#This file is the author's own work and represents their interpretation of the#
#song. You may only use this file for private study, scholarship, or research.#
#-----------------------------------------------------------------------------#
Song:Too Drunk Too Fuck
Artist:Dead Kennedys
Tabbed by:acidhead
send corrections and shit to:www.acidhead@fuckshitpussyfuck.com
Allright, here's a slightly corrected version of TOO DRUNK TO FUCK so
have fun trying to play it I guess.  If you're having trouble with the
verse lines just try too play in a triplet rythm or do what i did, listen
to the song alot of times and just play the rythm in your head and then don't
even bother to count how many times u actually are hitting the strings.
[ Tab from: http://www.guitartabs.cc/tabs/d/dead_kennedys/too_drunk_to_fuck_tab.html ]
Riff1
---------------------------
---------------------------
---------------------------
---------------------------
---3-5-6-6-5------3-5-5-3--
-5------------5-5----------
                                                                              
Riff2
--------------------------------------------
--------------------------------------------
--------------------------------------------
--------------------------------------------
-3-3-3-3-5-5-5-6-5----3-5-6-6-5------3-5-5--
--------------------5------------5-5--------                                                                                                                                            
Chorus1
-3-3-3-0--3-3-3-0--3-0--3-0--0-0-1-1-2-2-x-x--
-0-0-0-0--0-0-0-0--0-0--0-0--0-0-1-1-2-2-5-5--
-0-0-0-1--0-0-0-1--0-1--0-1--1-1-2-2-3-3-5-5--
-0-0-0-2--0-0-0-2--0-2--0-2--2-2-3-3-4-4-5-5--
-------2--x-x-x-2--x-2--x-2--2-2-3-3-4-4-3-3--
-------0--3-3-3-0--3-0--3-0--0-0-1-1-2-2------
                                                                              
Break1
------------------------------18-18-17-15---------------------
-5--5--5--5--5-5-8--7-8-7-8-5--------------5-7-8--7-8-7-5--5--
-5--5--5--5--5-5-8--7-8-7-8-5--------------5-7-8--7-8-7-5--5--
-5--5--5--5--5-5-8--7-8-7-8-5--------------5-7-8--7-8-7-5--5--
-3--3--3--3--3-5-6--5-6-5-6-3--------------3-5-6--5-6-5-3--3--
--------------------------------------------------------------
                                                                              
Break2
-----------------------------------------------------------------------------
---------------------------------7-8-5-----------------------7-5-------------
---------------------------------7-8-5-----------------------7-5-------------
---------------------------------7-8-5-----------------------7-5-------------
---------------------------------5-6-3-----------------------5-3--------3----
-5-5-3-5-3--5-5-3-5-3--5-5-3-5-3--------5-5-3-5-3--5-5-3-5-3------5-5-3---5--
  
Riff3
---------------------------
---------------------------
---------------------------
---------------------------
---5-7-8-8-7------5-7-7-5--
-7------------7-7----------
                                                                              
Riff4
---------------------------------------------
---------------------------------------------
---------------------------------------------
---------------------------------------------
-5-5-5-5-7-7-7--8-7----5-7-8-8-7------7-9-9--
---------------------7------------7-7--------
                                                                         
Chorus2
-5-5-5-2--5-5-5-2--5-2--5-2--2-2-3-3-4-4------2-2-3-3-4-4-----2-2-3-3-4-4-----
-5-5-5-2--5-5-5-2--5-2--5-2--2-2-3-3-4-4-7-7--2-2-3-3-4-4-7-7-2-2-3-3-4-4-7-7-
-6-6-6-3--6-6-6-3--6-3--6-3--3-3-4-4-5-5-7-7--3-3-4-4-5-5-7-7-3-3-4-4-3-3-7-7-
-7-7-7-4--7-7-7-4--7-4--7-4--4-4-5-5-6-6-7-7--4-4-5-5-6-6-7-7-4-4-5-5-6-6-7-7-
-7-7-7-4--7-7-7-4--7-4--7-4--4-4-5-5-6-6-5-5--4-4-5-5-6-6-5-5-4-4-5-5-6-6-5-5-
-5-5-5-2--5-5-5-2--5-2--5-2--2-2-3-3-4-4------2-2-3-3-4-4-----2-2-3-3-4-4-----
                                                                              
Outro
-------------------------
-7-7-5-5-7-7-10-10-7-10--
-7-7-5-5-7-7-10-10-7-10--
-7-7-5-5-7-7-10-10-7-10--
-5-5-3-3-5-5--8--8-5--8--
-------------------------
                                                                              
SONG ORDER
Riff1	4x
RIff1	2xPalm-Muted
Riff2	1x
Chorus1	1x
Riff1	2x
Riff1	2xPalm-Muted
Riff2	1x
Chorus1	1x
Break1	1x
Break2	1x
Chorus1	1x
Riff1	2x
Riff3	2x
Riff3	2xPalm-Muted
Riff4	1x
Chorus2
Outro	3x
END
Comments