Dead Kennedys - Soup Is Good Food Chords & Tabs

 

Soup Is Good Food Chords & Tabs

Dead Kennedys Chords & Tabs

Version: 1 Type: Bass Tab

Soup Is Good Food Bass Tab

|--------------|           |---------------------------------|
|-----------2--| x33       |---------------------------------| x2
|---4-3--------|           |-2----2----5-4-2---6-5-2----2-4--|
|-2-----4------|           |----4------------------------4---|
[ Tab from: http://www.guitartabs.cc/tabs/d/dead_kennedys/soup_is_good_food_btab.html ]
  Soup Is Good Food…
|-------------------|
|-------------------| x3
|------5-5------5-5-|
|-7-7-----7-7-------|

Repeat the hole thing a couple of times…its really quite easy.
But some of the parts later on you have to play the part a little
bit more, but its still really easy to stick with it. So yeah have fun!!  

tabbed by scott picton