Dead Kennedys - Pull My Strings Chords & Tabs

 

Pull My Strings Chords & Tabs

Dead Kennedys Chords & Tabs

Version: 3 Type: Tab 0 ratings
1 star 2 stars 3 stars 4 stars 5 stars
comments

Pull My Strings Tab

Here it is! The solo that everyone wants, but not everyone can find!

Solo 
e|-------------------------------------------------------------------------| 
B|----------------------------------8--------------------------------------| 
G|-------------------------777-999-9-9-12-14-14b-14b-14b-14hb-12----12--12-| 
D|-7b-7b-7b-7hb-7-5---5--7-9-------------------------------------14---14---| 
A|------------------7--7---------------------------------------------------| 
E|-------------------------------------------------------------------------| 

e|---------------------------------------------15b-15b-15b-15hb-12------12-| 
B|---------------------------------1717-----17--------------------151215---| 
G|------------------------------16-----16-16-------------------------------| 
D|1412-----------------1212/14---------------------------------------------| 
A|------14131210-----------------------------------------------------------| 
E|---------------10-1212---------------------------------------------------| 
[ Tab from: http://www.guitartabs.cc/tabs/d/dead_kennedys/pull_my_strings_tab_ver_3.html ]
e|----------------16-----------------------------16-----16----16----16-18hb| 
B|-14hb-15b-15b-17-----16-18-16-18--------16-16b----16b----18----18--------| 
G|------------------16-------------1715------------------------------------| 
D|-------------------------------------1815--------------------------------| 
A|-------------------------------------------------------------------------| 
E|-------------------------------------------------------------------------|

e|-18hb-18hb-|-1916---|----16-18-18hb-18hb-18hb-212121- 
B|-----------|-----18-|-18----------------------------- 
G|-----------|-- * ---|-------------------------------- 
D|-----------|--------|-------------------------------- 
A|-----------|-5x-----|-------------------------------- 
E|-----------|--FAST--|-------------------------------- 

e------------------------------| 
b-1715----------------15--1517-| 
g-----1614-------14-16--16-----| 
d---------171417---------------| 
a------------------------------| 
e------------------------------| 

e|-15-------|--------|------------------------------------------------------ 
B|---17-----|--------|-------17----17--1515hb15b---17--17---1719------------
G|-----16---|-161514-|-16-14---------16----------16--16--16------1617161616- 
D|-------14-|--------|-------17-14------------------------------------------ 
A|----------|--alot -|------------------------------------------------------ 
E|----------|--FAST--|------------------------------------------------------ 

* = alternatively, you can just trill the 19 and 16 on the high E and fuck the 18.
Comments