Dead Kennedys - Police Truck Chords & Tabs

 

Police Truck Chords & Tabs

Dead Kennedys Chords & Tabs

Version: 3 Type: Tab 0 ratings
1 star 2 stars 3 stars 4 stars 5 stars
comments

Police Truck Tab

   
                              POLICE TRUCK
                            ''''''''''''''''
                              DEAD KENNEDYS
                         tabbed by: matt goolsby

> pick slide
22 two 2s together fast, not fret 22. only for indentical numbers: 33,11,etc.

e|-44444-33333-22222------7--10/9-8-7--8/7-6-5-------------|
b|-33333-22222-11111----------------------------3/2-1-0-->-|  intro
g|-------------------4-------------------------------------|
d|---------------------------------------------------------|
a|-------------------2-------------------------------------|
E|-------------------0-------------------------------------|

|----------------------------------------------|
|----------------------------------------------|
|----------------------------------------------|  pre-verse x4, then
|----------------------------------------------|  verse starts (same)
|-2-2-2-2--2-2-2-2--2-2-2-2--2-2-2-2--2-2-2-2--|
|-0-0-3-0--0-0-3-0--0-0-3-0--0-0-3-0--0-0-3-0--|

 riff a       riff b        riff c           riff d

|-5-5-6-6-   -7-7-6-6-   -------------   ------------------|
|---------   ---------   -------------   -4/3-2-1--3/2-1-0-|
|---------   ---------   -------------   ------------------|
|---------   ---------   -8b--8/7-5---   ------------------|
|---------   ---------   -----------7-   ------------------|
|---------   ---------   -------------   ------------------|

 riff e            riff g              riff h          riff i

|---------   -12/11-10-9--10/9-8-7-   -6-6-7-7-   -----------------|
|---------   ----------------------   ---------   -4---4---4---4---|
|-2-2-3-3-   ----------------------   ---------   ---2---2---2---2-|
|---------   ----------------------   ---------   -----------------|
|---------   ----------------------   ---------   -----------------|
|---------   ----------------------   ---------   -----------------|

|--------------------------------------------------------------------------|
|--------------------------------------------------------------------------|  solo
|--------------------------------------------------------------------------|
|----------------------------------------------------------------22-11-00--|
|-222-2-2-22-111-0-0---222-2-2-22-111-0-0---222-2-2-22-111-0-0-------------|
|--------------------3---------------------3-------------------3-----------|
[ Tab from: http://www.guitartabs.cc/tabs/d/dead_kennedys/police_truck_tab_ver_3.html ]
|----------------------------------------7-6-7-6-7-6-7-6-10-9-10-9-10-9-10-9-|
|----------------------------------------------------------------------------|
|----------------------------------------------------------------------------|
|-11-22-11-00-11-22-11-00-11-22-11-00-11-------------------------------------|
|----------------------------------------------------------------------------|
|----------------------------------------------------------------------------|

|-12-11-12-11-12-11-12-11-5-4-5-4-5-4-5-4-7-6-7-6-7-6-7-6-10-9-10-9-10-9-|
|------------------------------------------------------------------------|
|------------------------------------------------------------------------|
|------------------------------------------------------------------------|
|------------------------------------------------------------------------|
|------------------------------------------------------------------------|

|-10-9-12-11-12-11-12-11-12-11-12-11-12-11-12-11-12-11-12-11-12-11-12-11-12-|
|---------------------------------------------------------------------------|
|---------------------------------------------------------------------------|
|---------------------------------------------------------------------------|
|---------------------------------------------------------------------------|
|---------------------------------------------------------------------------|

|-11-12-11-12-11-12-11-12~-|
|--------------------------|
|--------------------------|  end solo
|--------------------------|
|--------------------------|
|--------------------------|

|-----------------------------------------------------------------------------| bridge
|-----------------------------------------------------------------------------|
|-----------------------------------------------------------------------------|
|--------------------------------------------------0--------------------0-----|
|-22-2-2-22-111-0-0---22-2-2-22-111-0-0---22-2-1/2---111-0-0---22-2-1/2---22--|
|-------------------3-------------------3-------------------3-----------------|

|-----------|
|-----------|
|-----------|
|-----------|  end bridge
|-11-00---2-|
|-------3-0-|

|---------------------|
|---------------------|
|---------------------|
|---------------------| chorus
|-9-999999-8-88-7-5-2-|
|-7-777777-6-66-5-3-0-|


SONG ORDER
'''''''''''''
intro
pre-verse x4
verse x7
riff a
verse x7
riff a
chorus
riff d
chorus
pre-verse x3
riff b
pre-verse x3
riff b
verse x7
riff e
chorus
riff c
chorus
verse x7
riff e
chorus
solo
verse x3
riff b
verse x3
riff b
verse x7
riff e
verse x7
riff e
chorus
riff d
chorus
pre-verse x4
bridge
chorus
riff d
chorus
riff g
chorus
riff i
chorus
end
Comments