Dead Kennedys - Police Truck Chords & Tabs

 

Police Truck Chords & Tabs

Dead Kennedys Chords & Tabs

Version: 3 Type: Bass Tab 0 ratings
1 star 2 stars 3 stars 4 stars 5 stars
comments

Police Truck Bass Tab

   
-------------------------------------------------------------------------------
			     Police Truck - Dead Kennedys
-------------------------------------------------------------------------------

Tabbed By :josh 
e-mail:scrubster2002@yahoo.com 

Tuning:standard EADG

Intro:
G|---------------------------------------------------|
D|---------------------------------------------------|
A|---------------------------------------------------|
E|-0030-0030-0030-0030-0030-0030-0030-0030-0030-0030-|x2

Verse1:
G|--------------------------------------------------------|
D|--------------------------------------------------------|
A|--------------------------------------------------------|
E|-0030-0030-0030-0030-0030-0030-0030-0030-0030-0030-6677-|

G|-------------------------------|
D|-------------------------------|
A|-------------------------------|
E|-0030-0030-0030-0030-0030-0030-|

Chorus1:
G|-----------------------------------------|
D|-----------------------------------------|
A|-----------------------------------------|
E|-7--6-5-3-0--0030-0030-0030-0030--7--6-7-0-|

End of Chorus 1:
G|----------------------------------------|
D|----------------------------------------|
A|----------------------------------------|
E|-0030-0030-0030-7766-0030-0030-0030-7766|

Verse2:
G|----------------------------------------|
D|----------------------------------------|
A|------------------------------------1122|
E|-0030-0030-0030-0030-0030-0030-0030-----|

Chorus:2
G|------------------|
D|------------------|
A|------------------|
E|-7--6-7-0---------|

Solo:

G|-----------------------------------------------------------|
D|-----------------------------------------------------------|
A|-2-2-2-2-2-2-11100--2-2-2-2-2-2-11100--2-2-2-2-2-2-11100---|
E|------------------33-----------------33-----------------33-|
[ Tab from: http://www.guitartabs.cc/tabs/d/dead_kennedys/police_truck_btab_ver_3.html ]
G|-------------------------------------|
D|-------------------------------------|
A|-22110011-22110011-22110011-22110011-|
E|-------------------------------------|

G|--------------------------------------------------------|
D|--------------------------------------------------------|
A|--------------------------------------------------------|
E|-0030-0030-0030-0030-0030-0030-0030-0030-0030-0030-0030-|

G|----------------------------------------------|
D|----------------------------------------------|
A|----------------------------------------------|
E|-0030-0030-0030-0030-0030-0030-0030-0030-0030-|
           (guitar pickslide)
G|-----------------------------------------|
D|-----------------------------------------|
A|-----------------------------------------|
E|-0030-0030-0030-7766-0030-0030-0030-7766-|

Verse3:
G|-----------------------------------------|
D|-----------------------------------------|
A|-----------------------------------------|
E|-0030-0030-0030-0030-0030-0030-0030-6677-|

G|-----------------------------------------|
D|-----------------------------------------|
A|-----------------------------------------|
E|-0030-0030-0030-0030-0030-0030-0030-6677-|

Chorus3:
G|-----------------------------------------|
D|-----------------------------------------|
A|-----------------------------------------|
E|-7--6-5-3-0-0030-0030-0030-0030-7--6-7-0-|

Outro:

G|---------------------------------------------------|
D|------------------------------0-----------0--------|
A|-22222211100--22222211100--222-11100--2222-11100---|
E|------------33-----------33---------33----------33-|

G|---------------------------------------------------------------|
D|---------------------------------------------------------------|
A|---------------------------------------------------------------|
E|-7--6-5-3-0-0030-0030-0030-0030-7--6-5-3-0-0030-0030-0030-0030-|

G|-------------------------------------------------|
D|-------------------------------------------------|
A|-------------------------------------------------|
E|-7--6-5-3-0-0030-0030-0030-0030--7-----6-7-----0-|

I put the song in the exact order so just play as it says.enjoy.
Comments