Dead Kennedys - Nazi Punks Fuck Off Chords & Tabs

 

Nazi Punks Fuck Off Chords & Tabs

Dead Kennedys Chords & Tabs

Version: 1 Type: Bass Tab 0 ratings
1 star 2 stars 3 stars 4 stars 5 stars
comments

Nazi Punks Fuck Off Bass Tab

Verse:
G|-------------------------------------------------------------------||
D|-------------------------------------------------------------------||
A|44444--------------------------------------------------------------||
E|-----6-6-44444-6-6-------------------------------------------------|| x2

Chorus:
G|-------------------------------------------------------------------||
D|-------------------------------------------------------------------||
A|------------4-4----------------------------------------------------||
E|446-446-446--------------------------------------------------------|| x2
[ Tab from: http://www.guitartabs.cc/tabs/d/dead_kennedys/nazi_punks_fuck_off_btab.html ]
Bridge:
G|-------------------------------------------------------------------||
D|-------------------------------------------------------------------||
A|44-44-44-----------------------------------------------------------||
E|--6--6--6-4-6------------------------------------------------------|| x1

Verse x 1

Chorus x1

Play the Bridge through most of the verse, until 'You still think swastikas look cool',
then play the verse once.

Chorus x1

Outro:
G|-------------------------------------------------------------------||
D|-------------------------------------------------------------------||
A|44-44-44-44-44-----------------------------------------------------||
E|--6--6--6--6--6----------------------------------------------------||
Comments