Dead Kennedys - Lets Lynch The Landlord Chords & Tabs

 

Lets Lynch The Landlord Chords & Tabs

Dead Kennedys Chords & Tabs

Version: 3 Type: Tab 0 ratings
1 star 2 stars 3 stars 4 stars 5 stars
comments

Lets Lynch The Landlord Tab

Let's Lynch the Landlord
Artist: Dead Kennedys
Album: Fresh Fruit, Rotting Vegetables
Tuning: Standard
Tabber: alifly21

Verse/Main Riff (play 2 times for the intro)

|---------------------------|
|-2-2-0-0-2-2--2---4-2------|
|-3-3-1-1-3-3--2---4-2------|
|-4-4-2-2-4-4----4-----4-2--|
|-4-4-2-2-4-4---------------|
|-2-2-0-0-2-2---------------|

Chorus
|------------------------------------------------------------|
|------------------2-2-0-0-2-2--2---4-2----------------------|
|------------------3-3-1-1-3-3--2---4-2----------------------|
|-9-9-9-9-7-7-7-7--4-4-2-2-4-4----4----4-2---9-9-9-9-7-7-7-7-|
|-9-9-9-9-7-7-7-7--4-4-2-2-4-4---------------9-9-9-9-7-7-7-7-|
|-7-7-7-7-5-5-5-5--2-2-0-0-2-2---------------7-7-7-7-5-5-5-5-|

 ------------------------------------|
 ------------------------------------|
 ------------------------------------|	end with main riff
 -11-11-11-11-11-11-11-11--11-11-9-7-|      then play verse
 -11-11-11-11-11-11-11-11--11-11-9-7-|
 --9--9--9--9--9--9--9--9---9--9-7-5-|
[ Tab from: http://www.guitartabs.cc/tabs/d/dead_kennedys/lets_lynch_the_landlord_tab_ver_3.html ]
Solo	Guitar 1
|-----------------------------------------------------------------------|
|-----------------------------------------------------------------------|
|--------------9-8---------9-8-------------------------------11-10------|
|----7/9--9-7------9-96/7-----9-9-6/7-9-----11-11-11--11-9-------11----|
|--9-------------------------------------9------------------------------|
|-----------------------------------------------------------------------|

 ----------------------------------------------------------------------|
 --------9---11----9----------------------9-9-9------------------------|
 -----10---11--11----11-10--10-8----------------11-11-11-10------------|
 --11----------------------------11-9v----------------------11/6/11----|
 ----------------------------------------------------------------------|
 ----------------------------------------------------------------------|
Guitar 2

|-----------                |--------------------------|
|-----------                |--------------------------|
|-----------   X4      then |--------------------------|    X8
|--9-9-7-7--                |-11-11-9-9----------------|
|--9-9-7-7--                |-11-11-9-9----------------|
|--7-7-5-5--                |--9--9-7-7----------------|


Bridge (played by Guitar 2)
|---------------------|
|---------------------|
|---------------------|
|--11-11-11--9-9-8-9--|	X4
|--11-11-11--9-9-8-9--|
|---9--9--9--7-7-6-7--|
Comments