Dead Kennedys - Lets Lynch The Landlord Complete Chords & Tabs

 

Lets Lynch The Landlord Complete Chords & Tabs

Dead Kennedys Chords & Tabs

Version: 1 Type: Tab 1 rating
1 star 2 stars 3 stars 4 stars 5 stars
comments

Lets Lynch The Landlord Complete Tab

   
Dead Kennedys
Let's lynch the landlord
by Wolfstrike
wolfstrike2@usinmail.com


(u=up d=down strum previous chord)


     (intro and verses)               (hold bar)(repeat)

E: --2------2-2-0------0-0-2------2-2------------------|
B: --2------2-2-0------0-0-2------2-2-4-2--------------|
G: --3------3-3-1------1-1-3------3-3-4-2--------------|
D: --4------4-4-2------2-2-4------4-4-4-2-4-2----------|
A: --4------4-4-2------2-2-4------4-4-----4-2----------|
E: --2------2-2-0------0-0-2------2-2------------------|



                     (...you know we can)

E: ----------------------------------2--------0--------2--------0----0-0------|
B: ----------------------------------2--------0--------2--------0----0-0------|
G: --8---------------6---------------3--------1--------3--------1----1-1------|
D: --9---------------7---------------4--------2--------4--------2----2-2------|
A: --9---------------7---------------4--------2--------4--------2----2-2------|
E: --7--d-u-d-u-d-u--5--d-u-d-u-d-u--2----d-u-0----d-u-2----d-u-0----0-0------|



E: ---------------------------------------------------|
B: ----------------------------------9----------------|
G: --8---------------6---------------10---------------|
D: --9---------------7---------------11---------------|
A: --9---------------7---------------11---------------|
E: --7--d-u-d-u-d-u--5--d-u-d-u-d-u--9--d-u-d-u-d-u---|



   (play this first time only)
    (...let's lynch the landlord man) 

E: ---------------------------|
B: --9----9--9----9----9------|
G: --10---10-10---10---10-----|
D: --11---11-11---11---11-----|
A: --11---11-11---11---11-----|
E: --9----9--9----9----9------|


   (play this 2nd time and after)(repeat)
   (...lets' lynch the landlord let's lynch the landlord...)

E: ---------------------------|
B: --9----9--9----------------|
G: --10---10-10---8-8-7-8-----|
D: --11---11-11---9-9-8-9-----|
A: --11---11-11---9-9-8-9-----|
E: --9----9--9----7-7-6-7-----|


   F#Maj  EMaj  F#Maj  EMaj
   

   


        solo
[ Tab from: http://www.guitartabs.cc/tabs/d/dead_kennedys/lets_lynch_the_landlord_complete_tab.html ]
E: ------------------------------------------------------------|
B: ------------------------------------------------------------|
G: --------------------------9--8s--------------9--8s----------|
D: --4---(4)s--9--9-----7--------------9--7--------------------|
A: ------------------9--------------s9-------------------------|
E: ------------------------------------------------------------|

E: ------------------------------------------------------------|
B: ------------------------------------------------------------|
G: ------------------------------------------------------------|
D: ------9----7--9--------------11--11--11--11--(11)--11----9--|
A: --s9-------------9-----(9)----------------------------11----|
E: ------------------------------------------------------------|


E: ------------------------------------------------------------|
B: ----------------------------------------------9--(9)--------|
G: --11--10s----------------11-10s------------10---------------|
D: ----------------11--9----------------11--9------------------|
A: ------------s11------------------s11------------------------|
E: ------------------------------------------------------------|


E: ------------------------------------------------------------|
B: --9--9------11--9---(9)---9--9-----11-----------------------|
G: --------10----------------------10--------------------------|
D: ------------------------------------------------------------|
A: ------------------------------------------------------------|
E: ------------------------------------------------------------|

E: --------------------------------------------------------------|
B: --7--7--h9--p7-----------------------9------------------------|
G: ---------------10--8--------------10---10--8------------------|
D: ----------------------11--9--(9)--------------11--9s-6s-s9-11-|
A: --------------------------------------------------------------|
E: --------------------------------------------------------------|



   (repeat)
E: ---------------------------|
B: --9----9--9----------------|
G: --10---10-10---8-8-7-8-----|
D: --11---11-11---9-9-8-9-----|
A: --11---11-11---9-9-8-9-----|
E: --9----9--9----7-7-6-7-----|     



   (last ending riff)(repeat)

E: ---------------------------|
B: --11---11-11--9-9-8-9------|
G: --11---11-11--9-9-8-9------|
D: --11---11-11--9-9-8-9------|
A: --9----9--9---7-7-6-7------|
E: ---------------------------|


E: ---------------------|
B: ---------------------|
G: ---------------------|
D: --4-----(4)----------|
A: --4-----(4)----------|
E: --2-----(2)----------|




Comments