Dead Kennedys - Lets Lynch The Landlord Chords & Tabs

 

Lets Lynch The Landlord Chords & Tabs

Dead Kennedys Chords & Tabs

Version: 3 Type: Bass Tab 0 ratings
1 star 2 stars 3 stars 4 stars 5 stars
comments

Lets Lynch The Landlord Bass Tab

   
Title: Let's Lynch the Landlord
Artist: Dead Kennedys
Album: Fresh Fruit for Rotting Vegetables

Instrument: 4 String Bass

Tabbed by: Republican_Punk (punksk8brderdude@gmail.com)

Tuning: Standard (E A D G)

This is a fun song to play. and all of the other tabs of this are wrong. especially the
guitar tab. which i cant figure out. so u'll have to wait for it. heres the bass tab.
its as accurate as i can get


G|-------2-----------2---4-2---||
D|-1-2-4---4-2-1-2-4---4-------||
A|-----------------------------||
E|-----------------------------||
   intro/verse


[ Tab from: http://www.guitartabs.cc/tabs/d/dead_kennedys/lets_lynch_the_landlord_btab_ver_3.html ]
G|--------------------2-----------2----------------------------------||
D|------------------4---4-2-1-2-4---4-2-1-2--------------------------||
A|-2222222200000000-------------------------222222220000000044444444-||
E|-------------------------------------------------------------------||
   oh we can you know we can...             oh we caaaaan...



G|---------------------------------||
D|---------------------------------||
A|-44442200------------------------||
E|---------------------------------||
   lets lynch the landlord man

then it repeats. i dont know what goes on during the solo cus the guitar is alot louder
than the backing. but if anyone can get this tab right for guitar. ill thank them. e
mail me any corrections. i did this from memory so it might not be perfect.
Comments