Dead Kennedys - I Fought The Law Chords & Tabs

 

I Fought The Law Chords & Tabs

Dead Kennedys Chords & Tabs

Version: 1 Type: Tab 0 ratings
1 star 2 stars 3 stars 4 stars 5 stars
comments

I Fought The Law Tab

   
I Fought the Law
Drum part in the begining
e|---3-------------------3---------------------3-333--00-22--3333-----3--------|
B|---o-------------------0---------------------0-000--11-33--0000-----0--------|
G|---0-------------------0---------------------0-000--00-22--0000--0000--------|
D|---0-------------------0---------------------0-000--22-00--0000--0000--------|
A|---2-------------------2---------------------2-222--33-----2222--0303--------|
E|---3333-3333-3333-3333-3-3333-3333-3333-3333-3-333---------3333---222--------|
[ Tab from: http://www.guitartabs.cc/tabs/d/dead_kennedys/i_fought_the_law_tab.html ]
The Rest of the song goes GCD 
the bridge is C G C G D G
the solo is
e|--------------------12121212-------------------------------------------------|
B|-8-8-8-8--13-131313-13131313-13131313--8888------8888------8-8-8-131313------|
G|-9-9-9-9--12-121212-12121212-12121212--7777-9999-7777-910--9-9-9-121212------|
D|10101010--10-101010----------10101010---------------------101010-101010------|
A|-----------------------------------------------------------------------------|
E|-----------------------------------------------------------------------------|

e|--12121212-------------------------------------------------------------------|
B|--13131313-13131313--12-12-12-12-12-12-12-12-12-12---------------------------|
G|--12121212-12121212--12-12-12-12-12-12-12-12-12-14-11-12---------------------|
D|-----------10101010--12-12-12-12-12-12-12-12-12-12---------------------------|
A|-----------------------------------------------------------------------------|
E|-----------------------------------------------------------------------------|
I'm not to sure if this is exactly corret but it's close
the rest is easy to figure out

Have fun
Comments