Dead Kennedys - Holiday In Cambodia Chords & Tabs

 

Holiday In Cambodia Chords & Tabs

Dead Kennedys Chords & Tabs

Version: 5 Type: Tab 0 ratings
1 star 2 stars 3 stars 4 stars 5 stars
comments

Holiday In Cambodia Tab

   
Holiday in Cambodia - Dead Kennedys
Holiday in Cambodia by the Dead Kennedys. 

i noticed that the tabs already on here are slightly different versions to the song from
the album Fresh Fruit for Rotting Vegatables, so here is that version. use high gain. at
some points in this song an echo effect is used and the delay changes throughout the
song - however if you dont have the effect you can just play the notes more times, it
still sounds ok with plenty of gain. i'll put in every position once but you can play
around with the rhythms etc. 
questions comments etc to mr_claire@hotmail.com 
tabbed by Claire Winter

Intro:

Guitar 1: raking

Guitar 2:
  E |-----------------------------------------------------------------|
  B |-----------------------------------------------------------------|
  G |-----------------------------------------------------------------|
  D |-----------------------------------------------------------------|
  A |--3-3-3-2-2-2-1-1-0-0-0-0-0-0-0-0--------------------------------|
  E |-----------------------------------------------------------------|

Guitar 1:

  E |-----------------------|
  B |-----------------------|
  G |----14--14--14--14-----|
  D |-------------------etc-|
  A |--12--12--12--12-------|
  E |-----------------------|

*
  E |-------------------------------|
  B |-------------------------------|
  G |-14-/-5-9-8-8--5-5-4-11-10-10--|
  D |-------------------------------| x 2
  A |-12-/-3-7-6-6--3-3-2-9--8--8---|
  E |-------------------------------|

  E |-----------------------------------|
  B |-----------------------------------|
  G |-----------------------------------|
  D |-----------------------------------| x 2
  A |--3-3-3-2-2-2-1-1-0-0-0-0-0-0-0-0--|
  E |-----------------------------------|

VERSE.
palm muted...
       x x x x x x x x x x x x x x x x
  E |-----------------------------------|
  B |-----------------------------------|
  G |-----------------------------------|
  D |-----------------------------------| x 4
  A |--3-3-3-2-2-2-1-1-0-0-0-0-0-0-0-0--|
  E |-----------------------------------|

  E |------7-------------10-----------|
  B |--------7---7----------10----10--|
  G |----7-----7------11-------11-----|
  D |--9-----------12-----------------| x 4
  A |---------------------------------|
  E |---------------------------------|

  E |-------------------------------------------------------------------|
  B |--7-7-7-7-7-7-7-7-5-5-5-5-5-5-5-5---------5-5-5-5------------------|
  G |--7-7-7-7-7-7-7-7-5-5-5-5-5-5-5-5---------5-5-5-5------------------|
  D |----------------------------------5-5-5-5---------7-7-7-7-7-7-7-7--| x 2
  A |--5-5-5-5-5-5-5-5-3-3-3-3-3-3-3-3---------3-3-3-3------------------|
  E |----------------------------------3-3-3-3---------5-5-5-5-5-5-5-5--|

can use low delay on each note x 1
  E |---------5-5------------7-7---------------8-8----------|
  B |-----6-6-----6-6-----8-8----8-8-------10-10-----10-10--|
  G |-7-7-------------9-9------------10-10------------------|
  D |-------------------------------------------------------| x 2
  A |-------------------------------------------------------|
  E |-------------------------------------------------------|
[ Tab from: http://www.guitartabs.cc/tabs/d/dead_kennedys/holiday_in_cambodia_tab_ver_5.html ]
CHORUS:
  E |------------------------------13--|
  B |------------------------------13--|
  G |--2-5-7-5-2-5-7-5-2-5-7-5-2---14--|
  D |--2-5-7-5-2-5-7-5-2-5-7-5-2-5-15--|
  A |--0-3-5-3-0-3-5-3-0-3-5-3-0-5-----|
  E |----------------------------3-----|
repeat from *

SOLO:
(delay?)
  E |--13-13-13-13-12-12-12-12-11-11-11-11-10-10-10-10--|
  B |--13-13-13-13-12-12-12-12-11-11-11-11-10-10-10-10--|
  G |--14-14-14-14-13-13-13-13-12-12-12-12-11-11-11-11--|
  D |--15-15-15-15-14-14-14-14-13-13-13-13-12-12-12-12--| x 2
  A |---------------------------------------------------|
  E |---------------------------------------------------|

  E |----------------------------------------------------|
  B |----------------------------------------------------|
  G |--9-/-11-/-2-/-9-/-11-/-4-/-9-/-11-/-2-/-9-/-11-/-4-|
  D |----------------------------------------------------|
  A |----------------------------------------------------|
  E |----------------------------------------------------|

  E |----------------------------------------------------------------------|
  B |----------------------------------------------------------------------|
  G |--/-9-9-9-9-9-9-10-10-10-10-10-10-11-11-11-11-11-11-12-12-12-12-12-12-|
  D |----------------------------------------------------------------------|
  A |----------------------------------------------------------------------|
  E |----------------------------------------------------------------------|

  E |-------------------|------------------------|
  B |-------------------|------------------------|
  G |-13-13-13-13-13-13-|-14-14-14-14-14-14-(x5)-|
  D |-------------------|------------------------|
  A |-------------------|------------------------|
  E |-------------------|------------------------|
  
  E |-------------------------------|
  B |-------------------------------|
  G |-14-/-5-9-8-8--5-5-4-11-10-10--|
  D |-------------------------------| x 2
  A |-12-/-3-7-6-6--3-3-2-9--8--8---|
  E |-------------------------------|

  E |-------------------------------------------|
  B |-------------------------------------------|
  G |-------9-10------9-10------9-10------9-10--|
  D |-10-9-------10-9------10-9------10-9-------|
  A |-------7--8------7--8------7--8------7--8--|
  E |-8--7-------8--7------8--7------8--7-------|

  E |-------------------------------------------------------------------|
  B |--7-7-7-7-7-7-7-7-5-5-5-5-5-5-5-5---------5-5-5-5------------------|
  G |--7-7-7-7-7-7-7-7-5-5-5-5-5-5-5-5---------5-5-5-5------------------|
  D |----------------------------------5-5-5-5---------7-7-7-7-7-7-7-7--| x 2
  A |--5-5-5-5-5-5-5-5-3-3-3-3-3-3-3-3---------3-3-3-3------------------|
  E |----------------------------------3-3-3-3---------5-5-5-5-5-5-5-5--|

  E|---------------------------------------------------------------------|
  B|---------------------------------------------------------------------|
  G|---------------------------------------------------------------------|
  D|---2---2---2---2---5---5---5---5---7---7---7---7---10---10---10---10-|x7
  A|-0---0---0---0---3---3---3---3---5---5---5---5---8----8----8----8----|
  E|---------------------------------------------------------------------|

CHORUS:                                End on:
  E |------------------------------13-|-------|
  B |------------------------------13-|-------|
  G |--2-5-7-5-2-5-7-5-2-5-7-5-2---14-|-5-2---|
  D |--2-5-7-5-2-5-7-5-2-5-7-5-2-5-15-|-5-2---|
  A |--0-3-5-3-0-3-5-3-0-3-5-3-0-5----|-3-0---|
  E |----------------------------3----|-------|
Comments