Dead Kennedys - Holiday In Cambodia Chords & Tabs

 

Holiday In Cambodia Chords & Tabs

Dead Kennedys Chords & Tabs

Version: 5 Type: Bass Tab

Holiday In Cambodia Bass Tab

 this song is the shit live!...its good on the cd too...enjoy

MAIN PART:
G -------------------------|
D -------------------------|
A -------------------------|
E --8-8-8-7-6-5-5-5-5-5-5--|(repeat)

VERSE PT.2:
E -------------------|
D -------------------|
A -------------------|
E --3-3-3-3-10-10-10-|(4X)

BRIDGE:
A ----------------------------------|
D ----------------------------------|
A --5-5-5-5-3-3-3-3-----3-3-1-1-1-1-|
E ------------------3-3-------------|
[ Tab from: http://www.guitartabs.cc/tabs/d/dead_kennedys/holiday_in_cambodia_btab_ver_5.html ]
PRE-CHORUS:
G ---------------------------------|
D ------------------------------7--|
A --2-2-2-2-3-3-3-3-5-5-5-5-3-3----|
E ---------------------------------|

CHORUS
G ----------------------------------|
D ----------------------------------|
A --0-0-3-3-5-5-5-5-0-0-3-3-5-5-5-5-|
E ----------------------------------|

OUTRO
G ------------------------------------|
D ------------------------------------|
A --0-0-0-0-3-3-3-3-5-5-5-5-8-8-8-10--|
E ------------------------------------|

if u have any comments, questions, complaints....fuck off..or just email me w/e >MAYLINZIPPORAID@yahoo.com<