Dead Kennedys - Have I The Right Chords & Tabs

 

Have I The Right Chords & Tabs

Dead Kennedys Chords & Tabs

Version: 1 Type: Bass Tab 0 ratings
1 star 2 stars 3 stars 4 stars 5 stars
comments

Have I The Right Bass Tab

This is my first tab, please rate...

Song: "Have I The Right"
By: Dead Kennedys
Album: Live At The Deaf Club

Intro: (after drums)
G|---------------------------------|
D|---------------------------------|      Repeat once
A|---5-5-5-5-0-0-0-0---------------|
E|---------------------------------|
[ Tab from: http://www.guitartabs.cc/tabs/d/dead_kennedys/have_i_the_right_btab.html ]
Verse:                                                                                   
       (Play this the first time
G|-------------------------------------------------------------------------||--|  only)
D|-------------------------------------------------------------------------||--|
A|---5-5-5-5-0-0-0-0-5-5-5-5----------5-5-5-5----------0-0-0-0---||---0-2-3-4--|
E|---------------------------------3-3-3-3----------7-7-7-7-------------||-----|

(On the second time through the verse just play E-7 & Open A twice then another open A at the end)

Chorus:
G|--------------------------------------------------------------------------------------|
D|--------------------------------------------------------------------------------------|
A|---5-5-5-5-----0-0-5-5-5-5-0-0-0-0-5-5-5-5-----0-0--5-5-5-5-0-0-0-0-------------------|
E|-------------3-3-----------------------------------3-3--------------------------------|

Here's the whole song order:
Intro x2
Verse
Chorus
Verse
Chorus
Verse
Chorus x2

End

Another great and easy to play cover by the Dead Kennedys...
Comments