Dead Kennedys - Forest Fire Chords & Tabs

 

Forest Fire Chords & Tabs

Dead Kennedys Chords & Tabs

Version: 1 Type: Tab 0 ratings
1 star 2 stars 3 stars 4 stars 5 stars
comments

Forest Fire Tab

   
FOREST FIRE - Dead Kennedy's


By: Jeff Munt

e-|-------------|-------------------------------------|
B-|-------------|-------------------------------------|
G-|-4-4-6-6-4-4-|-6-6-6-6-4-4-4-4-6-6-6-6-4-4-4-9-9-6-|
D-|-4-4-6-6-4-4-|-6-6-6-6-4-4-4-4-6-6-6-6-4-4-4-9-9-6-|
A-|-2-2-4-4-2-2-|-4-4-4-4-2-2-2-2-4-4-4-4-2-2-2-7-7-4-|
E-|-------------|-------------------------------------|

e-|-----------------------------------------------------
B-|-----------------------------------------------------
G-|-----------------------------------------------------
D-|-4-4-4-7-4-4-4-4-4-7-4-4-7-7-----9-9-----4-4-4-7-4-4-
A-|-2-2-2-5-2-2-2-2-2-5-2-2-5-5-7-7-7-7-7-7-2-2-2-5-2-2-
E-|-----------------------------5-5-----5-5-------------

e-|-----------------------------------------------------|
B-|-----------------------------------------------------|
G-|-----------------------------------------------------|
D-|-4-4-4-7-4-4-4-4-4-7-4-4-7-7-----9-9-----4-4-4-7-4-4-|
A-|-2-2-2-5-2-2-2-2-2-5-2-2-5-5-7-7-7-7-7-7-2-2-2-5-2-2-|
E-|-----------------------------5-5-----5-5-------------|

e-|---------------------------------------------|
B-|---------------------------------------------|
G-|---------------------------------------------|
D-|---------7-7---------7-7---------7-7---------|
A-|-7-9-9-7-5-5-9-7-7-9-5-5-7-9-9-7-5-5-9-7-7-9-|
E-|-5-7-7-5-----7-5-5-7-----5-7-7-5-----7-5-5-7-|

e-|---------------------------------------------------------------|
B-|---------------------------------------------------------------|
G-|---------------------------------------------------------------|
D-|---------------------------------------------------------------|
A-|-9-9-9-9-9-9-9-8-7-7-7-7-7-7-7-6-5-5-5-5-5-5-5-6-7-7-7-7-7-7-7-|
E-|-7-7-7-7-7-7-7-6-5-5-5-5-5-5-5-4-3-3-3-3-3-3-3-4-5-5-5-5-5-5-5-|

e-|-----------------------------------------------------|
B-|-----------------------------------------------------|
G-|-----------------------------------------------------|
D-|-4-4-4-7-4-4-4-4-4-7-4-4-7-7-----9-9-----4-4-4-7-4-4-|
A-|-2-2-2-5-2-2-2-2-2-5-2-2-5-5-7-7-7-7-7-7-2-2-2-5-2-2-|
E-|-----------------------------5-5-----5-5-------------|

e-|---------------------|
B-|---------------------|
G-|---------------------|
D-|---------7-7---------|
A-|-7-9-9-7-5-5-9-7-7-9-|
E-|-5-7-7-5-----7-5-5-7-|

e-|-14-13-12-12-14-13-12-12-14-13-12-12-14-13-12-12--12-11-10-10-12-11-10-10-
B-|--------------------------------------------------------------------------
G-|--------------------------------------------------------------------------
D-|--------------------------------------------------------------------------
A-|--------------------------------------------------------------------------
E-|--------------------------------------------------------------------------

e-|-12-11-10-10-12-11-10-10--14-13-12-12-14-13-12-12-14-13-12-12-14-13-12-12-
B-|--------------------------------------------------------------------------
G-|--------------------------------------------------------------------------
D-|--------------------------------------------------------------------------
A-|--------------------------------------------------------------------------
E-|--------------------------------------------------------------------------
[ Tab from: http://www.guitartabs.cc/tabs/d/dead_kennedys/forest_fire_tab.html ]
E-|-12-11-10-10-12-11-10-10-12-11-10-10-12-11-10-10-14-13-12-12-14-13-12-12-
B-|-------------------------------------------------------------------------
G-|-------------------------------------------------------------------------
D-|-------------------------------------------------------------------------
A-|-------------------------------------------------------------------------
E-|-------------------------------------------------------------------------

E-|-12-11-10-10-12-11-10-10-14-13-12-12-14-13-12-12-12-11-10-10-12-11-10-10-
B-|-------------------------------------------------------------------------
G-|-------------------------------------------------------------------------
D-|-------------------------------------------------------------------------
A-|-------------------------------------------------------------------------
E-|-------------------------------------------------------------------------

e-|-14-13-12-12-14-13-12-12--12-11-10-10-12-11-10-10----------------|
B-|-----------------------------------------------------------------|
G-|-----------------------------------------------------------------|
D-|--------------------------------------------------11-11-11-11-14-|
A-|---------------------------------------------------9--9--9--9-12-|
E-|-----------------------------------------------------------------|

e-|-------------------------------------------------------------
B-|-------------------------------------------------------------
G-|-------------------------------------------------------------
D-|-6-6-6-6-9-6-6-6-6-6-6-9-6-6-9-9-----11-11-----6-6-6-6-9-6-6-
A-|-4-4-4-4-7-4-4-4-4-4-4-7-4-4-7-7-9-9--9--9-9-9-4-4-4-4-7-4-4-
E-|---------------------------------7-7-------7-7---------------

e-|-------------------------------------------------------------|
B-|-------------------------------------------------------------|
G-|-------------------------------------------------------------|
D-|-6-6-6-6-9-6-6-6-6-6-6-9-6-6-9-9-----11-11-----6-6-6-6-9-6-6-|
A-|-4-4-4-4-7-4-4-4-4-4-4-7-4-4-7-7-9-9--9--9-9-9-4-4-4-4-7-4-4-|
E-|---------------------------------7-7-------7-7---------------|

e-|-----------------------------------------------------|
B-|-----------------------------------------------------|
G-|-----------------------------------------------------|
D-|-----------9-9-----------9-9-----------9-9-----------|
A-|-9-11-11-9-7-7-11-9-9-11-7-7-9-11-11-9-7-7-11-9-9-11-|
E-|-7--9--9-7------9-7-7--9-----7--9--9-7------9-7-7--9-|

e-|------------------------------------------------------------------
B-|------------------------------------------------------------------
G-|------------------------------------------------------------------
D-|------------------------------------------------------------------
A-|-11-11-11-11-11-11-11-10-9-9-9-9-9-9-9-10-11-11-11-11-11-11-11-10-
E-|--9--9--9--9--9--9--9--8-7-7-7-7-7-7-7--8--9--9--9--9--9--9--9--8-

e-|-----------------------------------------------------------------------
B-|-----------------------------------------------------------------------
G-|-----------------------------------------------------------------------
D-|-----------------9-9-----11-11-----9-9-----11-11-----9-9-----11-11-----
A-|-9-9-9-9-9-9-9-9-7-7-9-9--9--9-9-9-7-7-9-9--9--9-9-9-7-7-9-9--9--9-9-9-
E-|-7-7-7-7-7-7-7-7-----7-7-------7-7-----7-7-------7-7-----7-7-------7-7-

e-|----------|
B-|----------|
G-|----------|
D-|----------|
A-|-11-11-11-|
E-|--9--9--9-|
Comments