Dead Kennedys - Chemical Warfare Chords & Tabs

 

Chemical Warfare Chords & Tabs

Dead Kennedys Chords & Tabs

Version: 3 Type: Tab 0 ratings
1 star 2 stars 3 stars 4 stars 5 stars
comments

Chemical Warfare Tab

-----------------------------------------------------------------------------
	             Chemical Warefare - Dead Kennedys
-----------------------------------------------------------------------------
Tabbed By: Myster-E
Email: MysterE720@yahoo.com

Tuning: EADGBE (Standard)

This is riff 10, if you've seen the other versions you'll know where i'm at.
The other versions were halfway wrong about this part, they had the right notes,
just the wrong positon that the notes were played in, and the starting note didn't
sound like the right gauge for the string, that's how I noticed. So, here's my version, played higher.
[ Tab from: http://www.guitartabs.cc/tabs/d/dead_kennedys/chemical_warfare_tab_ver_3.html ]
E|------------16---151618161516-----15----
B|--14--131416-----------------13-16------
G|----------------------------------------
D|----------------------------------------
A|----------------------------------------
E|----------------------------------------

E|------------15---141516151415----15-----
B|--14--131416-----------------14----13---
G|----------------------------------------
D|----------------------------------------
A|----------------------------------------
E|----------------------------------------

The starting note from the other versions is Db (D string, fret 11),
if you put your 1st finger on that note, then put your 4th on fret 14 on the B string,
you'll get an octave chord, and that's one of the ways I found it. Helpful hint, keep it in mind.
=============================================================================
Comments