Dead Kennedys - California Uber Alles Chords & Tabs

 

California Uber Alles Chords & Tabs

Dead Kennedys Chords & Tabs

Version: 1 Type: Bass Tab 0 ratings
1 star 2 stars 3 stars 4 stars 5 stars
comments

California Uber Alles Bass Tab

   
Bass tab for "California Uber Alles" by the Dead Kennedys
from "Fresh Fruit for Rotting Vegetables" and
"Give me Convience or give me Death"

intro
G--------------------
D--------------------
A-1/6-66-6667777-797-
E--------------------

riff 1
G------------------
D------------------  x8
A-6666-6667777-797-
E------------------

riff 2
G------------------
D------------------
A-6666-6663334-444-
E------------------

riff 1 x3

riff3
G------------------
D------------------ x2
A-6666-666444------
E------------5-522-

riff 4
G--------------------------------
D--------------------------------  x2
A-6-6----6-6----6-666666---------
E-----------------------22222222-
[ Tab from: http://www.guitartabs.cc/tabs/d/dead_kennedys/california_uber_alles_btab.html ]
riff 5
G------------------
D------------------ x2
A-6-666666444------
E------------5-522-

riff 1 x5

riff 3

riff 1 x3

riff 3 x2

riff 4 x2

riff 5 x3

Tempo decreases here

G------------------
D------------------    This under guitar playing riff 5
A-6_______________-
E------------------

riff 5 x 14  (tempo increasing back to normal)

riff 4 x2

riff 5 x3

outro
G--------------------------	----------------------
D-------------------------- x3	----------------------
A-6--6666--6664--444999777-	-6---------------6666-
E--------------------------	----------------------

The timing should be right. Look at my other tabs if you can't work
it out. e-mail me with any corrections. The version on
"Give me Convience.." is the same only slower.
Thanks, Nick



Comments