Dead Kennedys - Buzzbomb Chords & Tabs

 

Buzzbomb Chords & Tabs

Dead Kennedys Chords & Tabs

Version: 1 Type: Tab 0 ratings
1 star 2 stars 3 stars 4 stars 5 stars
comments

Buzzbomb Tab

   
BUZZBOMB - Dead Kennedys


By: Rambozo

e-|-----------------------------------------------------------------|
B-|-----------------------------------------------------------------|
G-|-----------------------------------------------------------------|
D-|-----------------------------------------------------------------|
A-|-5-5-8-8-5-5-8-8-5-5-8-8-5-5-8-8-5-5-8-8-5-5-8-8-5-5-8-8-5-5-8-8-|
E-|-3-3-6-6-3-3-6-6-3-3-6-6-3-3-6-6-3-3-6-6-3-3-6-6-3-3-6-6-3-3-6-6-|

e-|-----------------------------------------------------------------
B-|-----------------------------------------------------------------
G-|-----------------------------------------------------------------
D-|-----------------------------------------------------------------
A-|-----------------------------------------------------------------
E-|-4-4-7-7-4-4-7-7-4-4-7-7-4-4-7-7-3-3-6-6-3-3-6-6-3-3-6-6-3-3-6-6-

e-|-----------------------------------------------------------------|
B-|-----------------------------------------------------------------|
G-|-----------------------------------------------------------------|
D-|-----------------------------------------------------------------|
A-|-----------------------------------------------------------------|
E-|-4-4-7-7-4-4-7-7-4-4-7-7-4-4-7-7-3-3-6-6-3-3-6-6-3-3-6-6-3-3-6-6-|

e-|-----------------------------------------------------------------|
B-|-----------------------------------------------------------------|
G-|-----------------------------------------------------------------|
D-|-----------------------------------------------------------------|
A-|-9-9-9-9-9-9-9-9-8-8-8-8-8-8-8-8-9-9-9-9-9-9-9-9-8-8-8-8-8-8-8-8-|
E-|-7-7-7-7-7-7-7-7-6-6-6-6-6-6-6-6-7-7-7-7-7-7-7-7-6-6-6-6-6-6-6-6-|

e-|-----------------------------------------------------------------
B-|-----------------------------------------------------------------
G-|-----------------------------------------------------------------
D-|-----------------------------------------------------------------
A-|-----------------------------------------------------------------
E-|-4-4-7-7-4-4-7-7-4-4-7-7-4-4-7-7-3-3-6-6-3-3-6-6-3-3-6-6-3-3-6-6-

e-|-----------------------------------------------------------------|
B-|-----------------------------------------------------------------|
G-|-----------------------------------------------------------------|
D-|-----------------------------------------------------------------|
A-|-----------------------------------------------------------------|
E-|-4-4-7-7-4-4-7-7-4-4-7-7-4-4-7-7-3-3-6-6-3-3-6-6-3-3-6-6-3-3-6-6-|

e-|-----------------------------------------------------------------
B-|-----------------------------------------------------------------
G-|-----------------------------------------------------------------
D-|-----------------------------------------------------------------
A-|-9-9-9-9-9-9-9-9-8-8-8-8-8-8-8-8-9-9-9-9-9-9-9-9-8-8-8-8-8-8-8-8-
E-|-7-7-7-7-7-7-7-7-6-6-6-6-6-6-6-6-7-7-7-7-7-7-7-7-6-6-6-6-6-6-6-6-

e-|-----------------------------------------------------------------|
B-|-----------------------------------------------------------------|
G-|-----------------------------------------------------------------|
D-|-7-7-7-7-7-7-7-7-5-5-5-5-5-5-5-5-4-4-4-4-4-4-4-4-3-3-3-3-3-3-3-3-|
A-|-5-5-5-5-5-5-5-5-3-3-3-3-3-3-3-3-2-2-2-2-2-2-2-2-1-1-1-1-1-1-1-1-|
E-|-----------------------------------------------------------------|

e-|---------------------------------|
B-|---------------------------------|
G-|---------------------------------|
D-|---------------------------------|
A-|-5-5-8-8-5-5-8-8-5-5-8-8-5-5-8-8-|
E-|-3-3-6-6-3-3-6-6-3-3-6-6-3-3-6-6-|

e-|-----------------------------------------------------------------
B-|-----------------------------------------------------------------
G-|-----------------------------------------------------------------
D-|-----------------------------------------------------------------
A-|-----------------------------------------------------------------
E-|-4-4-7-7-4-4-7-7-4-4-7-7-4-4-7-7-3-3-6-6-3-3-6-6-3-3-6-6-3-3-6-6-
[ Tab from: http://www.guitartabs.cc/tabs/d/dead_kennedys/buzzbomb_tab.html ]
e-|-----------------------------------------------------------------|
B-|-----------------------------------------------------------------|
G-|-----------------------------------------------------------------|
D-|-----------------------------------------------------------------|
A-|-----------------------------------------------------------------|
E-|-4-4-7-7-4-4-7-7-4-4-7-7-4-4-7-7-3-3-6-6-3-3-6-6-3-3-6-6-3-3-6-6-|

e-|-----------------------------------------------------------------
B-|-----------------------------------------------------------------
G-|-----------------------------------------------------------------
D-|-----------------------------------------------------------------
A-|-9-9-9-9-9-9-9-9-8-8-8-8-8-8-8-8-9-9-9-9-9-9-9-9-8-8-8-8-8-8-8-8-
E-|-7-7-7-7-7-7-7-7-6-6-6-6-6-6-6-6-7-7-7-7-7-7-7-7-6-6-6-6-6-6-6-6-

e-|-----------------------------------------------------------------|
B-|-----------------------------------------------------------------|
G-|-----------------------------------------------------------------|
D-|-7-7-7-7-7-7-7-7-5-5-5-5-5-5-5-5-4-4-4-4-4-4-4-4-3-3-3-3-3-3-3-3-|
A-|-5-5-5-5-5-5-5-5-3-3-3-3-3-3-3-3-2-2-2-2-2-2-2-2-1-1-1-1-1-1-1-1-|
E-|-----------------------------------------------------------------|

e-|---------------------------------|
B-|---------------------------------|
G-|---------------------------------|
D-|---------------------------------|
A-|-5-5-8-8-5-5-8-8-5-5-8-8-5-5-8-8-|
E-|-3-3-6-6-3-3-6-6-3-3-6-6-3-3-6-6-|

e-|------------------------------------------------------------------------
B-|-12-12-12-12-12-12-10---------------------------------------------------
G-|----------------------12-11-11-11-11-11-11-11-9-11-12-12-12-12-12-12-14-
D-|------------------------------------------------------------------------
A-|------------------------------------------------------------------------
E-|------------------------------------------------------------------------

e-|------------------------------------------------------------------------
B-|-------------------------12-12-12-12-12-12-10---------------------------
G-|-11-11-11-11-11-11-11-11----------------------12-11-11-11-11-11-11-11-9-
D-|------------------------------------------------------------------------
A-|------------------------------------------------------------------------
E-|------------------------------------------------------------------------

e-|-------------------------------|
B-|-------------------------13-12-|
G-|-11-12-12-12-12-12-12-12-------|
D-|-------------------------------|
A-|-------------------------------|
E-|-------------------------------|

e-|-----------------------------------------------------------------
B-|-----------------------------------------------------------------
G-|-----------------------------------------------------------------
D-|-----------------------------------------------------------------
A-|-----------------------------------------------------------------
E-|-4-4-7-7-4-4-7-7-4-4-7-7-4-4-7-7-3-3-6-6-3-3-6-6-3-3-6-6-3-3-6-6-

e-|-----------------------------------------------------------------|
B-|-----------------------------------------------------------------|
G-|-----------------------------------------------------------------|
D-|-----------------------------------------------------------------|
A-|-----------------------------------------------------------------|
E-|-4-4-7-7-4-4-7-7-4-4-7-7-4-4-7-7-3-3-6-6-3-3-6-6-3-3-6-6-3-3-6-6-|

e-|---------------------------------------------------|
B-|---------------------------------------------------|
G-|---------------------------------------------------|
D-|---------------------------------------------------|
A-|-9-9-9-9-9-9-9-9-8-8-8-8-8-8-8-8-9-9-9-9-9-9-9-9-8-|
E-|-7-7-7-7-7-7-7-7-6-6-6-6-6-6-6-6-7-7-7-7-7-7-7-7-6-|

e-|--------------------------------------------|
B-|--------------------------------------------|
G-|--------------------------------------------|
D-|--------------------------------------------|
A-|-5-5-8-8-5--5-5-8-8-5--5-5-8-8-5--5-5-8-8-2-|
E-|-3-3-6-6-3--3-3-6-6-3--3-3-6-6-3--3-3-6-6-0-|
Comments