Dead Kennedys - Bedtime For Democracy Chords & Tabs

 

Bedtime For Democracy Chords & Tabs

Dead Kennedys Chords & Tabs

Version: 1 Type: Tab 0 ratings
1 star 2 stars 3 stars 4 stars 5 stars
comments

Bedtime For Democracy Tab

   
1. Take This Job and Shove It 	:Rudy Guzman
2. Hop With the Jet Set 	:MxTabs
3. Dear Abby			:Unknown
4. Rambozo the Clown 		:Didn't put the name
5. Fleshdunce 			:Didn't put the name
6. The Great Wall		:Cant Find
7. Shrink			:MxTabs
8. Triumph of the Swill		:Can't Find
9. Macho Insecurity		:Can't Find
10. I Spy			:MxTabs
11. Cesspools In Eden		:punkandoi!
12. One-way Ticket To Pluto 	:Jeff Munt
13. Do the Slag 		:Can't Find
14. A Commercial		:Can't Find
15. Gone With My Wind 		:Can't Find
16. Anarchy For Sale 		:Can't Find
17. Chickenshit Conformist	:Unknown
18. Where Do Ya Draw the Line  	:Hurricane
19. Potshot Heard 		:Can't Find
20. D.M.S.O. 			:Can't Find
21. Lie Detector 		:Can't Find

-----------------------------------------------------------------------------
			    Take this Job and Shove It
-----------------------------------------------------------------------------

guzman_84@hotmail.com

take this job and shove it!
e---------------------------5-|
B---------------------------5-|
G---------------------------6-|
D---------------------------7-|
A---------------------------7-|
E---------------------------5-|

e-5-5-5-5-5-5-5-5-5-5-5-5-5-5-5-5-5-5-5-5-5-5-5--3-3-2-2-0-0-0-0-0-0-|
B-5-5-5-5-5-5-5-5-5-5-5-5-5-5-5-5-5-5-5-5-5-5-5--3-3-2-2-0-0-0-0-0-0-|
G-6-6-6-6-6-6-6-6-6-6-6-6-6-6-6-6-6-6-6-6-6-6-6--4-4-3-3-1-1-1-1-1-1-|
D-7-7-7-7-7-7-7-7-7-7-7-7-7-7-7-7-7-7-7-7-7-7-7--5-5-4-4-2-2-2-2-2-2-|
A-7-7-7-7-7-7-7-7-7-7-7-7-7-7-7-7-7-7-7-7-7-7-7--5-5-4-4-2-2-2-2-2-2-|
E-5-5-5-5-5-5-5-0-5-5-5-5-5-5-5-0-5-5-5-5-5-5-5--3-3-2-2-0-0-0-0-0-0-|

e-5-5-5-5-5-5-5-5-5-5-5-5-5-5-5-5-5-5-5-5-5-5-5------------5-5-5-5-5--0-0-0-0-0-|
B-5-5-5-5-5-5-5-5-5-5-5-5-5-5-5-5-5-5-5-5-5-5-5--6-6-6-6-6-5-5-5-5-5--0-0-0-0-0-|
G-6-6-6-6-6-6-6-6-6-6-6-6-6-6-6-6-6-6-6-6-6-6-6--7-7-7-7-7-6-6-6-6-6--1-1-1-1-1-|
D-7-7-7-7-7-7-7-7-7-7-7-7-7-7-7-7-7-7-7-7-7-7-7--7-7-7-7-7-7-7-7-7-7--2-2-2-2-2-|
A-7-7-7-7-7-7-7-7-7-7-7-7-7-7-7-7-7-7-7-7-7-7-7--5-5-5-5-5-7-7-7-7-7--2-2-2-2-2-|
E-5-5-5-5-5-5-5-0-5-5-5-5-5-5-5-0-5-5-5-5-5-5-5------------5-5-5-5-5--0-0-0-0-0-|

e-5-5-5-5-5-5-5-5-5-5-5-5-5-5-5-5-5-5-5-5-5-5-5----5-|
B-5-5-5-5-5-5-5-5-5-5-5-5-5-5-5-5-5-5-5-5-5-5-5----5-|
G-6-6-6-6-6-6-6-6-6-6-6-6-6-6-6-6-6-6-6-6-6-6-6----6-|
D-7-7-7-7-7-7-7-7-7-7-7-7-7-7-7-7-7-7-7-7-7-7-7----7-|
A-7-7-7-7-7-7-7-7-7-7-7-7-7-7-7-7-7-7-7-7-7-7-7----7-|
E-5-5-5-5-5-5-5-0-5-5-5-5-5-5-5-0-5-5-5-5-5-5-5--0-5-|

take this job and shove it!
e---------------------------5-|
B---------------------------5-|
G---------------------------6-|
D---------------------------7-|
A---------------------------7-|
E---------------------------5-|

e-5-5-5-5-5-5-5-5-5-5-5-5-5-5-5-5-5-5-5-5-5-5-5--3-3-2-2-0-0-0-0-0-0-|
B-5-5-5-5-5-5-5-5-5-5-5-5-5-5-5-5-5-5-5-5-5-5-5--3-3-2-2-0-0-0-0-0-0-|
G-6-6-6-6-6-6-6-6-6-6-6-6-6-6-6-6-6-6-6-6-6-6-6--4-4-3-3-1-1-1-1-1-1-|
D-7-7-7-7-7-7-7-7-7-7-7-7-7-7-7-7-7-7-7-7-7-7-7--5-5-4-4-2-2-2-2-2-2-|
A-7-7-7-7-7-7-7-7-7-7-7-7-7-7-7-7-7-7-7-7-7-7-7--5-5-4-4-2-2-2-2-2-2-|
E-5-5-5-5-5-5-5-0-5-5-5-5-5-5-5-0-5-5-5-5-5-5-5--3-3-2-2-0-0-0-0-0-0-|

e-5-5-5-5-5-5-5-5-5-5-5-5-5-5-5-5-5-5-5-5-5-5-5------------5-5-5-5-5--0-0-0-0-0-|
B-5-5-5-5-5-5-5-5-5-5-5-5-5-5-5-5-5-5-5-5-5-5-5--6-6-6-6-6-5-5-5-5-5--0-0-0-0-0-|
G-6-6-6-6-6-6-6-6-6-6-6-6-6-6-6-6-6-6-6-6-6-6-6--7-7-7-7-7-6-6-6-6-6--1-1-1-1-1-|
D-7-7-7-7-7-7-7-7-7-7-7-7-7-7-7-7-7-7-7-7-7-7-7--7-7-7-7-7-7-7-7-7-7--2-2-2-2-2-|
A-7-7-7-7-7-7-7-7-7-7-7-7-7-7-7-7-7-7-7-7-7-7-7--5-5-5-5-5-7-7-7-7-7--2-2-2-2-2-|
E-5-5-5-5-5-5-5-0-5-5-5-5-5-5-5-0-5-5-5-5-5-5-5------------5-5-5-5-5--0-0-0-0-0-|

e-5-5-5-5-5-5-5-5-5-5-5-5-5-5-5-5-5-5-5-5-5-5-5----5-|
B-5-5-5-5-5-5-5-5-5-5-5-5-5-5-5-5-5-5-5-5-5-5-5----5-|
G-6-6-6-6-6-6-6-6-6-6-6-6-6-6-6-6-6-6-6-6-6-6-6----6-|
D-7-7-7-7-7-7-7-7-7-7-7-7-7-7-7-7-7-7-7-7-7-7-7----7-|
A-7-7-7-7-7-7-7-7-7-7-7-7-7-7-7-7-7-7-7-7-7-7-7----7-|
E-5-5-5-5-5-5-5-0-5-5-5-5-5-5-5-0-5-5-5-5-5-5-5--0-5-|


bass

2 times
e-5-5-5-5-5-5-5-5-5-5-5-5-5-5-5-5-5-5-5-5-5-5-5-----|
B-5-5-5-5-5-5-5-5-5-5-5-5-5-5-5-5-5-5-5-5-5-5-5-----|
G-6-6-6-6-6-6-6-6-6-6-6-6-6-6-6-6-6-6-6-6-6-6-6-----|
D-7-7-7-7-7-7-7-7-7-7-7-7-7-7-7-7-7-7-7-7-7-7-7-----|
A-7-7-7-7-7-7-7-7-7-7-7-7-7-7-7-7-7-7-7-7-7-7-7-----|
E-5-5-5-5-5-5-5-0-5-5-5-5-5-5-5-0-5-5-5-5-5-5-5--0--|

e-5-5-5-5-5-5-5-5-5-5-5-5-5-5-5-5-5-5-5-5-5-5-5--3-3-2-2-0-0-0-0-0-0-|
B-5-5-5-5-5-5-5-5-5-5-5-5-5-5-5-5-5-5-5-5-5-5-5--3-3-2-2-0-0-0-0-0-0-|
G-6-6-6-6-6-6-6-6-6-6-6-6-6-6-6-6-6-6-6-6-6-6-6--4-4-3-3-1-1-1-1-1-1-|
D-7-7-7-7-7-7-7-7-7-7-7-7-7-7-7-7-7-7-7-7-7-7-7--5-5-4-4-2-2-2-2-2-2-|
A-7-7-7-7-7-7-7-7-7-7-7-7-7-7-7-7-7-7-7-7-7-7-7--5-5-4-4-2-2-2-2-2-2-|
E-5-5-5-5-5-5-5-0-5-5-5-5-5-5-5-0-5-5-5-5-5-5-5--3-3-2-2-0-0-0-0-0-0-|

e-5-5-5-5-5-5-5-5-5-5-5-5-5-5-5-5-5-5-5-5-5-5-5------------5-5-5-5-5--0-0-0-0-0-|
B-5-5-5-5-5-5-5-5-5-5-5-5-5-5-5-5-5-5-5-5-5-5-5--6-6-6-6-6-5-5-5-5-5--0-0-0-0-0-|
G-6-6-6-6-6-6-6-6-6-6-6-6-6-6-6-6-6-6-6-6-6-6-6--7-7-7-7-7-6-6-6-6-6--1-1-1-1-1-|
D-7-7-7-7-7-7-7-7-7-7-7-7-7-7-7-7-7-7-7-7-7-7-7--7-7-7-7-7-7-7-7-7-7--2-2-2-2-2-|
A-7-7-7-7-7-7-7-7-7-7-7-7-7-7-7-7-7-7-7-7-7-7-7--5-5-5-5-5-7-7-7-7-7--2-2-2-2-2-|
E-5-5-5-5-5-5-5-0-5-5-5-5-5-5-5-0-5-5-5-5-5-5-5------------5-5-5-5-5--0-0-0-0-0-|

e-5-5-5-5-5-5-5-5-5-5-5-5-5-5-5-5-5-5-5-5-5-5-5----5-|
B-5-5-5-5-5-5-5-5-5-5-5-5-5-5-5-5-5-5-5-5-5-5-5----5-|
G-6-6-6-6-6-6-6-6-6-6-6-6-6-6-6-6-6-6-6-6-6-6-6----6-|
D-7-7-7-7-7-7-7-7-7-7-7-7-7-7-7-7-7-7-7-7-7-7-7----7-|
A-7-7-7-7-7-7-7-7-7-7-7-7-7-7-7-7-7-7-7-7-7-7-7----7-|
E-5-5-5-5-5-5-5-0-5-5-5-5-5-5-5-0-5-5-5-5-5-5-5--0-5-|

take this job and shove it!
e---------------------------5-|
B---------------------------5-|
G---------------------------6-|
D---------------------------7-|
A---------------------------7-|
E---------------------------5-|

e-5-5-5-5-5-5-5-5-5-5-5-5-5-5-5-5-5-5-5-5-5-5-5--3-3-2-2-0-0-0-0-0-0-|
B-5-5-5-5-5-5-5-5-5-5-5-5-5-5-5-5-5-5-5-5-5-5-5--3-3-2-2-0-0-0-0-0-0-|
G-6-6-6-6-6-6-6-6-6-6-6-6-6-6-6-6-6-6-6-6-6-6-6--4-4-3-3-1-1-1-1-1-1-|
D-7-7-7-7-7-7-7-7-7-7-7-7-7-7-7-7-7-7-7-7-7-7-7--5-5-4-4-2-2-2-2-2-2-|
A-7-7-7-7-7-7-7-7-7-7-7-7-7-7-7-7-7-7-7-7-7-7-7--5-5-4-4-2-2-2-2-2-2-|
E-5-5-5-5-5-5-5-0-5-5-5-5-5-5-5-0-5-5-5-5-5-5-5--3-3-2-2-0-0-0-0-0-0-|

e-5-5-5-5-5-5-5-5-5-5-5-5-5-5-5-5-5-5-5-5-5-5-5------------5-5-5-5-5--0-0-0-0-0-|
B-5-5-5-5-5-5-5-5-5-5-5-5-5-5-5-5-5-5-5-5-5-5-5--6-6-6-6-6-5-5-5-5-5--0-0-0-0-0-|
G-6-6-6-6-6-6-6-6-6-6-6-6-6-6-6-6-6-6-6-6-6-6-6--7-7-7-7-7-6-6-6-6-6--1-1-1-1-1-|
D-7-7-7-7-7-7-7-7-7-7-7-7-7-7-7-7-7-7-7-7-7-7-7--7-7-7-7-7-7-7-7-7-7--2-2-2-2-2-|
A-7-7-7-7-7-7-7-7-7-7-7-7-7-7-7-7-7-7-7-7-7-7-7--5-5-5-5-5-7-7-7-7-7--2-2-2-2-2-|
E-5-5-5-5-5-5-5-0-5-5-5-5-5-5-5-0-5-5-5-5-5-5-5------------5-5-5-5-5--0-0-0-0-0-|

e-5-5-5-5-5-5-5-5-5-5-5-5-5-5-5-5-5-5-5-5-5-5-5----5-|
B-5-5-5-5-5-5-5-5-5-5-5-5-5-5-5-5-5-5-5-5-5-5-5----5-|
G-6-6-6-6-6-6-6-6-6-6-6-6-6-6-6-6-6-6-6-6-6-6-6----6-|
D-7-7-7-7-7-7-7-7-7-7-7-7-7-7-7-7-7-7-7-7-7-7-7----7-|
A-7-7-7-7-7-7-7-7-7-7-7-7-7-7-7-7-7-7-7-7-7-7-7----7-|
E-5-5-5-5-5-5-5-0-5-5-5-5-5-5-5-0-5-5-5-5-5-5-5--0-5-|

2 times
e-5-5-5-5-5-5-5-5-5-5-5-5-5-5-5-5-5-5-5-5-5-5-5-----|
B-5-5-5-5-5-5-5-5-5-5-5-5-5-5-5-5-5-5-5-5-5-5-5-----|
G-6-6-6-6-6-6-6-6-6-6-6-6-6-6-6-6-6-6-6-6-6-6-6-----|
D-7-7-7-7-7-7-7-7-7-7-7-7-7-7-7-7-7-7-7-7-7-7-7-----|
A-7-7-7-7-7-7-7-7-7-7-7-7-7-7-7-7-7-7-7-7-7-7-7-----|
E-5-5-5-5-5-5-5-0-5-5-5-5-5-5-5-0-5-5-5-5-5-5-5--0--|

e-5-5-5-5-5-5-5-5-5-5-5-5-5-5-5-5-5-5-5-5-5-5-5--3-3-2-2-0-0-0-0-0-0-|
B-5-5-5-5-5-5-5-5-5-5-5-5-5-5-5-5-5-5-5-5-5-5-5--3-3-2-2-0-0-0-0-0-0-|
G-6-6-6-6-6-6-6-6-6-6-6-6-6-6-6-6-6-6-6-6-6-6-6--4-4-3-3-1-1-1-1-1-1-|
D-7-7-7-7-7-7-7-7-7-7-7-7-7-7-7-7-7-7-7-7-7-7-7--5-5-4-4-2-2-2-2-2-2-|
A-7-7-7-7-7-7-7-7-7-7-7-7-7-7-7-7-7-7-7-7-7-7-7--5-5-4-4-2-2-2-2-2-2-|
E-5-5-5-5-5-5-5-0-5-5-5-5-5-5-5-0-5-5-5-5-5-5-5--3-3-2-2-0-0-0-0-0-0-|

e-5-5-5-5-5-5-5-5-5-5-5-5-5-5-5-5-5-5-5-5-5-5-5------------5-5-5-5-5--0-0-0-0-0-|
B-5-5-5-5-5-5-5-5-5-5-5-5-5-5-5-5-5-5-5-5-5-5-5--6-6-6-6-6-5-5-5-5-5--0-0-0-0-0-|
G-6-6-6-6-6-6-6-6-6-6-6-6-6-6-6-6-6-6-6-6-6-6-6--7-7-7-7-7-6-6-6-6-6--1-1-1-1-1-|
D-7-7-7-7-7-7-7-7-7-7-7-7-7-7-7-7-7-7-7-7-7-7-7--7-7-7-7-7-7-7-7-7-7--2-2-2-2-2-|
A-7-7-7-7-7-7-7-7-7-7-7-7-7-7-7-7-7-7-7-7-7-7-7--5-5-5-5-5-7-7-7-7-7--2-2-2-2-2-|
E-5-5-5-5-5-5-5-0-5-5-5-5-5-5-5-0-5-5-5-5-5-5-5------------5-5-5-5-5--0-0-0-0-0-|

e-5-5-5-5-5-5-5-5-5-5-5-5-5-5-5-5-5-5-5-5-5-5-5----5-|
B-5-5-5-5-5-5-5-5-5-5-5-5-5-5-5-5-5-5-5-5-5-5-5----5-|
G-6-6-6-6-6-6-6-6-6-6-6-6-6-6-6-6-6-6-6-6-6-6-6----6-|
D-7-7-7-7-7-7-7-7-7-7-7-7-7-7-7-7-7-7-7-7-7-7-7----7-|
A-7-7-7-7-7-7-7-7-7-7-7-7-7-7-7-7-7-7-7-7-7-7-7----7-|
E-5-5-5-5-5-5-5-0-5-5-5-5-5-5-5-0-5-5-5-5-5-5-5--0-5-|

take this job and shove it!
e---------------------------5-|
B---------------------------5-|
G---------------------------6-|
D---------------------------7-|
A---------------------------7-|
E---------------------------5-|

e-5-5-5-5-5-5-5-5-5-5-5-5-5-5-5-5-5-5-5-5-5-5-5--3-3-2-2-0-0-0-0-0-0-|
B-5-5-5-5-5-5-5-5-5-5-5-5-5-5-5-5-5-5-5-5-5-5-5--3-3-2-2-0-0-0-0-0-0-|
G-6-6-6-6-6-6-6-6-6-6-6-6-6-6-6-6-6-6-6-6-6-6-6--4-4-3-3-1-1-1-1-1-1-|
D-7-7-7-7-7-7-7-7-7-7-7-7-7-7-7-7-7-7-7-7-7-7-7--5-5-4-4-2-2-2-2-2-2-|
A-7-7-7-7-7-7-7-7-7-7-7-7-7-7-7-7-7-7-7-7-7-7-7--5-5-4-4-2-2-2-2-2-2-|
E-5-5-5-5-5-5-5-0-5-5-5-5-5-5-5-0-5-5-5-5-5-5-5--3-3-2-2-0-0-0-0-0-0-|

e-5-5-5-5-5-5-5-5-5-5-5-5-5-5-5-5-5-5-5-5-5-5-5------------5-5-5-5-5--0-0-0-0-0-|
B-5-5-5-5-5-5-5-5-5-5-5-5-5-5-5-5-5-5-5-5-5-5-5--6-6-6-6-6-5-5-5-5-5--0-0-0-0-0-|
G-6-6-6-6-6-6-6-6-6-6-6-6-6-6-6-6-6-6-6-6-6-6-6--7-7-7-7-7-6-6-6-6-6--1-1-1-1-1-|
D-7-7-7-7-7-7-7-7-7-7-7-7-7-7-7-7-7-7-7-7-7-7-7--7-7-7-7-7-7-7-7-7-7--2-2-2-2-2-|
A-7-7-7-7-7-7-7-7-7-7-7-7-7-7-7-7-7-7-7-7-7-7-7--5-5-5-5-5-7-7-7-7-7--2-2-2-2-2-|
E-5-5-5-5-5-5-5-0-5-5-5-5-5-5-5-0-5-5-5-5-5-5-5------------5-5-5-5-5--0-0-0-0-0-|

e-5-5-5-5-5-5-5-5------------5-5-5-5-5--|
B-5-5-5-5-5-5-5-5--6-6-6-6-6-5-5-5-5-5--|
G-6-6-6-6-6-6-6-6--7-7-7-7-7-6-6-6-6-6--|
D-7-7-7-7-7-7-7-7--7-7-7-7-7-7-7-7-7-7--|
A-7-7-7-7-7-7-7-7--5-5-5-5-5-7-7-7-7-7--|
E-5-5-5-5-5-5-5-0------------5-5-5-5-5--|


e-0-0-0-0-0-0-0-0-0-0-0-0-0-0-0-|
B-0-0-0-0-0-0-0-0-0-0-0-0-0-0-0-|
G-1-1-1-1-1-1-1-1-1-1-1-1-1-1-1-|
D-2-2-2-2-2-2-2-2-2-2-2-2-2-2-2-|
A-2-2-2-2-2-2-2-2-2-2-2-2-2-2-2-|
e-0-0-0-0-0-0-0-0-0-0-0-0-0-0-0-|


e-5-5-5-5-5-5-5-5-5-5-5-5-5-5----5--------------------------------------------|
B-5-5-5-5-5-5-5-5-5-5-5-5-5-5----5--------------------------------------------|
G-6-6-6-6-6-6-6-6-6-6-6-6-6-6----6--------------------------------------------|
D-7-7-7-7-7-7-7-7-7-7-7-7-7-7----7--------------------------------------------|
A-7-7-7-7-7-7-7-7-7-7-7-7-7-7----7--------------------------------------------|
E-5-5-5-5-5-5-5-5-5-5-5-5-5-5----5--------------------------------------------|
------------------------------------------------------------------------------|
				Hop with the Jet Set
-----------------------------------------------------------------------------
subpistolspunk@aol.com
ok people i'm sorry for not putting the exact # of strums on the tabs but eh to
long to do so fingers are falling of from dk songs so i just wanted to say when
i mean chords i mean a whole rythem part like the those four chords down there
yeah you reapet them...well im passing down what i know dk plays with all strings
70 percent of the time well enough blah now time to play...

no chords are exact number of strums
t - tremolo pick
B- bend
INTRO
e|-5-3-5-3-----------------------------------------------5-3-0-5-3-0-5-3-0-5-|
B|-5-3-5-3-----------------------------------------------5-3-0-5-3-0-5-3-0-5-|
G|-6-4-6-4-----------------------------------------------6-4-1-6-4-1-6-4-1-6-|
D|-7-5-7-5-----------------------------------------------7-5-2-7-5-2-7-5-2-7-|
A|-7-5-7-5-----------------------------------------------7-5-2-7-5-2-7-5-2-7-|
E|-5-3-5-3--5t-7t-8t-5t-7t-8t-0t-2t-3t-5t-7t-8t-0t-2t-3t-5-3-0-5-3-0-5-3-0-5-|

VERSE
you do this until he says
"come on for the ride"
then its then this again a few times
e|-5-3-0--10--8-5-10--8-5-10--8-10-11-10--8--5-3-0-----------------------------|
B|-5-3-0--10--8-5-10--8-5-10--8-10-11-10--8--5-3-0-----------------------------|
G|-6-4-1--11--9-6-11--9-6-11--9-11-12-11--9--6-4-1-----------------------------|
D|-7-5-2--12-10-7-12-10-7-12-10-12-13-12-10--7-5-2-----------------------------|
A|-7-5-2--12-10-7-12-10-7-12-10-12-13-12-10--7-5-2-----------------------------|
E|-5-3-0--10--8-5-10--8-5-10--8-10-11-10--8--5-3-0-----------------------------|

CHORUS "we'll sun ourselves red down in montego bay"
then this again
e|-5-7-10-12-10-5--8-10--8-5-7-10-12-10-5--8---5-3-0-5----------------|
B|-7-9-12-14-12-7-10-12-10-7-9-12-14-12-7-10---5-3-0-5----------------|
G|-7-9-12-14-12-7-10-12-10-7-9-12-14-12-7-10---6-4-1-6----------------|
D|-7-9-12-14-12-7-10-12-10-7-9-12-14-12-7-10---7-5-2-7-drums then do -|
A|-5-7-10-12-10-5--8-10--8-5-7-10-12-10-5--8---7-5-2-7-the riff more--|
E|-5-7-10-12-10-5--8-10--8-5-7-10-12-10-5--8---5-3-0-5----------------|

solo (you do it after the second chorus instead of the drum solo)
do each note a few times fast do it twice last time dont do 6
e|----------------------5-3-5-3-5-3-5-3-0-5------------------------------------|
B|----------------------5-3-5-3-5-3-5-3-0-5------------------------------------|
G|----------------------6-4-6-4-6-4-6-4-1-6------------------------------------|
D|----------------------7-5-7-5-7-5-7-5-2-7------------------------------------|
A|---7-10-7-8---7-------7-5-7-5-7-5-7-5-2-7------------------------------------|
E|-8----------8---10-6--5-3-5-3-5-3-5-3-0-5------------------------------------|

last verse (national geographic..)
e|-7-5-2-12-10-7-12-10-7-12-10-12-13-12-10-7-5-2-------------------------------|
B|-7-5-2-12-10-7-12-10-7-12-10-12-13-12-10-7-5-2-------------------------------|
G|-8-6-3-13-11-8-13-11-8-13-11-13-14-13-11-8-6-3-------------------------------|
D|-9-7-4-14-12-9-14-12-9-14-12-14-15-14-12-9-7-4-------------------------------|
A|-9-7-4-14-12-9-14-12-9-14-12-14-15-14-12-9-7-4-------------------------------|
E|-7-5-2-12-10-7-12-10-7-12-10-12-13-12-10-7-5-2-------------------------------|

last chorus all this
two times
e|-7--9-12-14-12-7-10-12-10-7--9-12-14-12-7-10---------------------------------|
B|-9-11-14-16-14-9-12-14-12-9-11-14-16-14-9-12---------------------------------|
G|-9-11-14-16-14-9-12-14-12-9-11-14-16-14-9-12---------------------------------|
D|-9-11-14-16-14-9-12-14-12-9-11-14-16-14-9-12---------------------------------|
A|-7--9-12-14-12-7-10-12-10-7--9-12-14-12-7-10---------------------------------|
E|-7--9-12-14-12-7-10-12-10-7--9-12-14-12-7-10---------------------------------|

outro play same as solo
e|-10--8-5----------------------------------------------5-5--------------------|
B|-10--8-5----------------------------------------------5-7--------------------|
G|-11--9-6----------------------------------------------6-7--------------------|
D|-12-10-7----------------------------------------------7-7--------------------|
A|-12-10-7-----9-12-9-------9---------9-12-9-10----9----7-5--------------------|
E|-10--8-5--10--------8b-10---12-8-10-----------10---12-5-5--------------------|


oh my god where are my fingers
-----------------------------------------------------------------------------
				    Dear Abby
-----------------------------------------------------------------------------
I think this is 100% correct.

~ - let Ring
tp - Tremolo Pick

  x2              x2
e|-7-7--5-5--2--|-7-7--5-5--7--6-7--8--|
B|-7-7--5-5--2--|-7-7--5-5--7--8-9-10--|
G|-8-8--6-6--3--|-8-8--6-6--8--8-9-10--|
D|-9-9--7-7--4--|-9-9--7-7--9--8-9-10--|
A|-9-9--7-7--4--|-9-9--7-7--9--6-7--8--|
E|-7-7--5-5--2--|-7-7--5-5--7----------|

  x4
e|-7-7--5-5--7--6-7--8--|
B|-7-7--5-5--7--8-9-10--|
G|-8-8--6-6--8--8-9-10--|
D|-9-9--7-7--9--8-9-10--|
A|-9-9--7-7--9--6-7--8--|
E|-7-7--5-5--7----------|

e|-7-7--5-5-5--7-7-7--5-5-5--7-7--5-5-5--7-7-7--5-5-5--|
B|-9-9--7-7-7--9-9-9--7-7-7--9-9--7-7-7--9-9-9--7-7-7--|
G|-9-9--7-7-7--9-9-9--7-7-7--9-9--7-7-7--9-9-9--7-7-7--|
D|-9-9--7-7-7--9-9-9--7-7-7--9-9--7-7-7--9-9-9--7-7-7--|
A|-7-7--5-5-5--7-7-7--5-5-5--7-7--5-5-5--7-7-7--5-5-5--|
E|-----------------------------------------------------|

e|-7-7--5-5-5--7-7--5-5-5--7-7--5-5-5--7-7--5-5-5---9--7-7-7--|
B|-7-7--5-5-5--7-7--5-5-5--7-7--5-5-5--7-7--5-5-5--11--9-9-9--|
G|-8-8--6-6-6--8-8--6-6-6--8-8--6-6-6--8-8--6-6-6--11--9-9-9--|
D|-9-9--7-7-7--9-9--7-7-7--9-9--7-7-7--9-9--7-7-7--11--9-9-9--|
A|-9-9--7-7-7--9-9--7-7-7--9-9--7-7-7--9-9--7-7-7---9--7-7-7--|
E|-7-7--5-5-5--7-7--5-5-5--7-7--5-5-5--7-7--5-5-5---9--7-7-7--|

Repeat Above Once

  x2		  x1	      
e|-7-7--5-5--2--|-tp12--tp15--tp19-7-7-5-5-2--|
B|-7-7--5-5--2--|-----------------------------|
G|-8-8--6-6--3--|-----------------------------|
D|-9-9--7-7--4--|-----------------------------|
A|-9-9--7-7--4--|-----------------------------|
E|-7-7--5-5--2--|-----------------------------|

e|-7-7--5-5--2---7-7--5-5--2~--5~--|
B|-7-7--5-5--2---7-7--5-5--2~--5~--|
G|-8-8--6-6--3---8-8--6-6--3~--6~--|
D|-9-9--7-7--4---9-9--7-7--4~--7~--|
A|-9-9--7-7--4---9-9--7-7--4~--7~--|
E|-7-7--5-5--2---7-7--5-5--2~--5~--|



-----------------------------------------------------------------------------
				Rambozo the Clown
-----------------------------------------------------------------------------
By: Min Chi Tei Fong Wein Dong Chung Hep Chink Gook Slope Slant

...got a brand new toy...
e|---------------------------------------------------------------------------|
B|---------------------------------------------------------------------------|
G|---------------------------------------------------------------------------|
D|---------------------------------------------------------------------------|
A|-77-44-777-999-91197-44----------------------------------------------------|
E|-55-22-555-777-79-75-22----------------------------------------------------|

...an egocentric muscle thug...
e|---------------------------------------------------------------------------|
B|---------------------------------------------------------------------------|
G|---------------------------------------------------------------------------|
D|---------------------------------------------------------------------------|
A|-77-44-777-999-9999764444-44-----------------------------------------------|
E|-55-22-555-777-7777542222-22-----------------------------------------------|

...we never should...have started at all...
e|---------------------------------------------------------------------------|
B|---------------------------------------------------------------------------|
G|---------------------------------------------------------------------------|
D|---------------------------------------------------------------------------|
A|-774-4-4-4---------774-4---------------------------------------------------|
E|-552-2-2-2---------552-2---------------------------------------------------|

...GI Joe in the cereal bowl...Grey shrapnel flavoured chewing gum...
e|---------------------------------------------------------------------------|
B|---------------------------------------------------------------------------|
G|---------------------------------------------------------------------------|
D|---------------------------------------------------------------------------|
A|-9999977999-7x444-7x444------9999977999-7x444-7x444------------------------|
E|-7777755777-5x222-5x222------7777755777-5x222-5x222------------------------|

...mass murdering is painless now that we've made it cute...
e|---------------------------------------------------------------------------|
B|---------------------------------------------------------------------------|
G|---------------------------------------------------------------------------|
D|---------------------------------------------------------------------------|
A|-9999977999-7-4-7-2--------------------------------------------------------|
E|-7777755777-5-2-5-0--------------------------------------------------------|

...Rambozo,Rambozo,Rambozo the clown
e|---------------------------------------------------------------------------|
B|---------------------------------------------------------------------------|
G|---------------------------------------------------------------------------|
D|---------------------------------------------------------------------------|
A|-7774----7774----7774----7---2---------------------------------------------|
E|-5552----5552----5552----5---0---------------------------------------------|

...Rambozo,Rambozo,Rambozo the clown
e|---------------------------------------------------------------------------|
B|---------------------------------------------------------------------------|
G|---------------------------------------------------------------------------|
D|-----------------------------11--------------------------------------------|
A|-7774----7774----7774----7---9---------------------------------------------|
E|-5552----5552----5552----5-------------------------------------------------|

...war is sexy...
e|---------------------------------------------------------------------------|
B|---------------------------------------------------------------------------|
G|---------------------------------------------------------------------------|
D|-77-9-7-55-----------------------------------------------------------------|
A|-55-7-5-33-----------------------------------------------------------------|
E|---------------------------------------------------------------------------|

"Hey Rocky,watch me pull a massacre outta my pants!"
"Agaaaain?"
-----------------------------------------------------------------------------
				    Fleshdunce
-----------------------------------------------------------------------------
By: I Can't Think Of A Witty Alias Right Now (my hobby is masturbation)

INTRO:
e|------------------------------------7--------------------------------------|
B|--------------------------------------7------------------------------------|
G|---------------------------------------------------------------------------|
D|---------------------------------------------------------------------------|
A|-9-999-7-7-777-9-9-999-7-7-777-9--9----------------------------------------|
E|-7-777-5-5-555-7-7-777-5-5-555-7--7----------------------------------------|

RIFF 1:
e|---------------------------------------------------------------------------|
B|---------------------------------------------------------------------------|
G|---------------------------------------------------------------------------|
D|---------------------10-9-7------------------------------------------------|
A|-999999-7-4-7-999999-8--7-5------------------------------------------------|
E|-777777-5-2-5-777777-------------------------------------------------------|

RIFF 2:
e|---------------------------------------------------------------------------|
B|---------------------------------------------------------------------------|
G|---------------------------------------------------------------------------|
D|-77777-55555-------------77777-55555-------------77777-55555---------------|
A|-55555-33333-77777-77777-55555-33333-77777-77777-55555-33333-77777-77777---|
E|-------------55555-55555-------------55555-55555-------------55555-55555---|

e|---------------------------------------------------------------------------|
B|---------------------------------------------------------------------------|
G|---------------------------------------------------------------------------|
D|-77777-55555---------------------------------------------------------------|
A|-55555-33333-77777-777-577777-777-9----------------------------------------|
E|-------------55555-555-355555-555-7----------------------------------------|

RIFF 3:
e|---------------------------------------------------------------------------|
B|---------------------------------------------------------------------------|
G|---------------------------------------------------------------------------|
D|--------77-99-10101010101010101010101010101010-----------------------------|
A|-999-99-55-77-8-8-8-8-8-8-8-8-8-8-8-8-8-8-8-8------------------------------|
E|-777-77--------------------------------------------------------------------|
[ Tab from: http://www.guitartabs.cc/tabs/d/dead_kennedys/bedtime_for_democracy_tab.html ]
e|---------------------------------------------------------------------------|
B|---------------------------------------------------------------------------|
G|---------------------------------------------------------------------------|
D|-101010-1010-99-77---------------------------------------------------------|
A|-8-8-8--8-8--77-55-9999999999999999----------------------------------------|
E|-------------------7777777777777777----------------------------------------|

After Riff 3 is played twice move it up two frets then play it twice more.
I like 'em white,brown,yellow,puerto rican or haitian.
-----------------------------------------------------------------------------
				The Great Wall
-----------------------------------------------------------------------------

		Cant Find E-mail Me RBM90120@aol.com

-----------------------------------------------------------------------------
				     Shrink
-----------------------------------------------------------------------------

Once You Get This Tab Check Out This Site
www.Alternativetentacles.com

Intro/Main verse:
e--------------------------------------------|
B--------------------------------------------|
G-4-4-4--2--4-4-4----------------------------|
D-4-4-4--2--4-4-4--6-6-6-6-7-7-7-7-----------|
A-2-2-2--0--2-2-2--6-6-6-6-7-7-7-7-----------|
E------------------4-4-4-4-5-5-5-5-----------|

Bridge:
e--------------------------------------------|
B--------------------------------------------|
G-4-4-4-4-4-4-4-4-4-4-4-4--6-6-7-6-----------|
D-4-4-4-4-4-4-4-4-4-4-4-4--6-6-7-6-----------|
A-2-2-2-2-2-2-2-2-2-2-2-2--4-4-5-4-----------|
E--------------------------------------------|

Chorus:
e----------------------------------------------|
B----------------------------------------------|
G-4-4-4-4-4-4-4-4---6---7---6---4---2----------|
D-4-4-4-4-4-4-4-4---6---7---6---4---2----------|
A-2-2-2-2-2-2-2-2---4---5---4---2---0----------|
E----------------------------------------------|


                  ROCK THE BAT!

                  ~JARED ESTES~
                 WeeZaR190@aol.com
                 Please Rate This!
-----------------------------------------------------------------------------
				Triumph of the Swill
-----------------------------------------------------------------------------

		Cant Find E-mail Me RBM90120@aol.com

-----------------------------------------------------------------------------
				Macho Insecurity
-----------------------------------------------------------------------------

		Cant Find E-mail Me RBM90120@aol.com

-----------------------------------------------------------------------------
				      I Spy
-----------------------------------------------------------------------------
Mxtabs [http://www.mxtabs.net]
|--------------------------------------------12----------------------|
|--------------------------------------------12-------------| the 12-|s are played in
|--------------------------------------------12----------------------| harmonics
|--------------------------------------------------------------------|
|--------------------------------------------------------------------|
|--0--0--3-5--0--0----0--0--3-5--0--0--------------------------------| this part

|----------------------3-------------|and this part is the bass intro
|----------------------5-------------|except tabbed for guitar
|----------------------4-------------|
|------------------------------------|
|------------------------------------|
|--0--0--3-5--0--0-----0--0--3-5--0--|

|---------------------------------------------------------------|
|---------------------------------------------------------------|they sometimes play
|---------------------------------------------------------------|this or they play
|---------------------------------------------------------------|that
|---------------------------------------------------------------|as the chorus
|--0-0--3-5--0-0--3-5--0-0--3-5-6-6-5-5-------------------------|
the strumming pattern for this is
down up down up


|----------------------------------|
|----------------------------------|
|----------------------------------|
|----------------------------------|
|----------------------------------|
|--0-0--3-5--0-0--3-5--0-0--3-5-6-5|
the strumming pattern for this is
down up down up also except for the last 6 and 5
          which are both down strokes

|-------------------------|
|-------------------------|
|--5---4---9-9-9-9-9~-9---|
|--5---4--:9-9-9-9-9~-9-:-|this is verse one
|--3---2---7-7-7-7-7~-7---|repeated as needed
|-------------------------|

|-----------|
|-----------|
|--5--4--7--|
|--5--4--7--|they play 5 7 7 more then once but i was too lazy to count them
|--3--2--5--|play this the last time they play verse one
|-----------|

|--12--13--12--11--12--13--14--15--16-|
|--12--13--12--11--12--13--14--15--16-| this is the solo play every
|-------------------------------------| note 4 times, i was too lazy to type that out
|-------------------------------------| so for the first note is 12 right? 12-12-12-12
|-------------------------------------|               12 so you would play 12-12-12-12
|-------------------------------------|

this is a pretty cool song, its kinda hard when you play it as fast as in the song
and with the correct
-----------------------------------------------------------------------------
				Cesspools In Eden
-----------------------------------------------------------------------------

Tuning: Standard (e A D G B e)

it's a tricky song, but it was even more tricky to figger it out.
This is the only correct version on internet. I couldn't find a
correct one so I figger it out myself.


intro:
E|-------------|--------------|------------|--------------||
B|-------------|--------------|------------|--------------||
G|----------6--|8--8-8--8-8-8-|---------9--|6--6-6--6-6-6-||
D|-5---5-5--6--|8--8-8--8-8-8-|5---5-5--9--|6--6-6--6-6-6-||
A|-5---5-5--4--|6--6-6--6-6-6-|5---5-5--7--|4--4-4--4-4-4-||
E|-3---3-3-----|--------------|3---3-5-----|--------------||


E|-------------|--------------|------------|---------||
B|-------------|--------------|------------|---------||
G|----------6--|8--8-8--8-8-8-|---------9--|6--------||
D|-5---5-5--6--|8--8-8--8-8-8-|5---5-5--9--|6--------||
A|-5---5-5--4--|6--6-6--6-6-6-|5---5-5--7--|4--------||
E|-3---3-3-----|--------------|3---3-5-----|---------||


bass plays


solo:
E|-------7-6---------------7-6---7-8---------7-6---7-6---6---6-7-6||
B|---6-8-------8-6-----6-8---------------6-8-----------8---8------||
G|-7-----------------7-----------------7--------------------------||
D|----------------------------------------------------------------||
A|----------------------------------------------------------------||
E|----------------------------------------------------------------||


E|--------------7-6---6-8-6---6-7-6---6-8-----6-7-6---6-7-6---6-||
B|8-6---6-----6-----8-------8-------8-------8-------8-------8---||
G|----7-----7---------------------------------------------------||
D|--------------------------------------------------------------||
A|--------------------------------------------------------------||
E|--------------------------------------------------------------||


E|-8v-10v-13v-15v-13\12/13--||
B|--------------------------||
G|--------------------------||
D|--------------------------||
A|--------------------------||
E|--------------------------||

verse:
E|----------------||
B|-9-10-9---------||
G|--------10------||
D|----------------||
A|----------------||
E|----------------||6x


E|----------------||
B|----------------||
G|---7-6----------||
D|-7-----8---7----||
A|----------------||
E|----------------||2x


E|-----------------------||
B|-----------------------||
G|-----------------2--2--||
D|-3----3--3--2----2--2--||
A|-3----3--3--2----0--0--||
E|-1----1--1--0----------||

chorus:
first they play this first riff without vocals, the last
2 times with vocals.
E|-------------|-------------|------------|-------------||
B|-------------|-------------|------------|-------------||
G|----------6--|8---8-8--8-8-|---------9--|6---6-6--6-6-||
D|-5---5-5--6--|8---8-8--8-8-|5---5-5--9--|6---6-6--6-6-||
A|-5---5-5--4--|6---6-6--6-6-|5---5-5--7--|4---4-4--4-4-||
E|-3---3-3-----|-------------|3---3-5-----|-------------||4x


E|-----------------|-------------||
B|-----------------|-------------||
G|-----7-7-6-6-5-5-|-------5-4---||
D|-5-5-7-7-6-6-5-5-|-3--3--5-4---||
A|-5-5-5-5-4-4-3-3-|-3--3--3-2---||
E|-3-3-------------|-1--1--------||3x


E|-------------||
B|-------------||
G|-------------||
D|-5--5--5--5--||
A|-5--5--5--5--||
E|-3--3--3--3--||

some soloing:
E|----------------------------------------------------------------||
B|-7--7-7-8-9-10-10--9-8-6--6-7----10--10-11-12-14-14--13-12-11-10||
G|-7--7-7-8-9-10-10--9-8-6--6-7----10--10-11-12-14-14--13-12-11-10||
D|----------------------------------------------------------------||
A|----------------------------------------------------------------||
E|----------------------------------------------------------------||

lead into verse:
E|------------------------------------------||
B|-9-10-9-----------9-10-9-10-12-10-9-------||
G|--------10v---9v--------------------10-9--||
D|------------------------------------------||
A|------------------------------------------||
E|------------------------------------------||

verse:
E|----------------||
B|-9-10-9---------||
G|--------10------||
D|----------------||
A|----------------||
E|----------------||4x


E|----------------||
B|----------------||
G|---7-6----------||
D|-7-----8---7----||
A|----------------||
E|----------------||2x


E|-----------------------||
B|-----------------------||
G|-----------------2--2--||
D|-3----3--3--2----2--2--||
A|-3----3--3--2----0--0--||
E|-1----1--1--0----------||

chorus:
first they play this first riff without vocals, the last
2 times with vocals.
E|-------------|-------------|------------|-------------||
B|-------------|-------------|------------|-------------||
G|----------6--|8---8-8--8-8-|---------9--|6---6-6--6-6-||
D|-5---5-5--6--|8---8-8--8-8-|5---5-5--9--|6---6-6--6-6-||
A|-5---5-5--4--|6---6-6--6-6-|5---5-5--7--|4---4-4--4-4-||
E|-3---3-3-----|-------------|3---3-5-----|-------------||4x


E|-----------------|-------------||
B|-----------------|-------------||
G|-----7-7-6-6-5-5-|-------5-4---||
D|-5-5-7-7-6-6-5-5-|-3--3--5-4---||
A|-5-5-5-5-4-4-3-3-|-3--3--3-2---||
E|-3-3-------------|-1--1--------||3x


E|-------------||
B|-------------||
G|-------------||
D|-5--5--5--5--||
A|-5--5--5--5--||
E|-3--3--3--3--||2x

some soloing again:
E|------------------------------------------------||
B|-----5--8-7---5---5-------5--8-7/19-------------||
G|-5--------------7-----5-------------------------||
D|------------------------------------------------||
A|------------------------------------------------||
E|------------------------------------------------||


E|------------------------------------------------||
B|------17--20-19---17----17--------17--20-19-----||
G|-17------------------19------17-----------------||
D|------------------------------------------------||
A|------------------------------------------------||
E|------------------------------------------------||

then:
E|---------------------||
B|---------------------||
G|-3-----(3)-----------||
D|-3-----(3)-5-----(5)-||
A|-1-----(1)-5-----(5)-||
E|-----------3-----(3)-||4x


E|-----5-5-4-4-1-1-|-----5-4-----||
B|-3-3-------------|-3-3---------||
G|-----------------|-------------||
D|-----------------|-------------||
A|-----------------|-------------||
E|-----------------|-------------||2x


E|-----------------|-------------||
B|-----------------|-------------||
G|-----2-2-1-1-----|-----2-1-----||
D|-0-0---------3-3-|-0-0---------||
A|-----------------|-------------||
E|-----------------|-------------||2x


E|---------------------||
B|---------------------||
G|-3-----(3)-----------||
D|-3-----(3)-5-----(5)-||
A|-1-----(1)-5-----(5)-||
E|-----------3-----(3)-||4x


E|-----5-5-4-4-1-1-|-----5-4-----||
B|-3-3-------------|-3-3---------||
G|-----------------|-------------||
D|-----------------|-------------||
A|-----------------|-------------||
E|-----------------|-------------||2x


E|---------------------||
B|---------------------||
G|-3-----(3)-----------||
D|-3-----(3)-5-----(5)-||
A|-1-----(1)-5-----(5)-||
E|-----------3-----(3)-||4x


E|-------------|-------------||
B|-------------|-------------||
G|-------------|-------------||
D|-------------|-------------||
A|-5--5--5--5--|-5-3-0-3-----||
E|-------------|-------------||2x


E|-------------|-------------||
B|-------------|-------------||
G|-------------|-------------||
D|-------------|-------------||
A|-3--3--3--3--|-3-1---1-----||
E|-------------|-----3-------||


E|-------------|----------||
B|-------------|----------||
G|-------------|----------||
D|-------------|----------||
A|-3--3--3--4--|-5--------||
E|-------------|----------||

chorus:
first they play this first riff without vocals, the last
2 times with vocals.
E|-------------|-------------|------------|-------------||
B|-------------|-------------|------------|-------------||
G|----------6--|8---8-8--8-8-|---------9--|6---6-6--6-6-||
D|-5---5-5--6--|8---8-8--8-8-|5---5-5--9--|6---6-6--6-6-||
A|-5---5-5--4--|6---6-6--6-6-|5---5-5--7--|4---4-4--4-4-||
E|-3---3-3-----|-------------|3---3-5-----|-------------||4x


E|-----------------|-------------||
B|-----------------|-------------||
G|-----7-7-6-6-5-5-|-------5-4---||
D|-5-5-7-7-6-6-5-5-|-3--3--5-4---||
A|-5-5-5-5-4-4-3-3-|-3--3--3-2---||
E|-3-3-------------|-1--1--------||3x

then:
E|-------------|-------------||
B|-------------|-------------||
G|-------------|-------------||
D|-------------|-------------||
A|-5--5--5--5--|-5-3-0-3-----||
E|-------------|-------------||2x

E|-------------|-------------||
B|-------------|-------------||
G|-------------|-------------||
D|-------------|-------------||
A|-3--3--3--3--|-3-1---1-----||
E|-------------|-----3-------||


E|-------------|----------||
B|-------------|----------||
G|-------------|----------||
D|-------------|----------||
A|-3--3--3--4--|-5--------||
E|-------------|----------||


-----------------------------------------------------------------------------
			     One-way Ticket To Pluto
-----------------------------------------------------------------------------

ONE WAY TICKET TO PLUTO
by the Dead Kennedys off Bedtime For Democracy

e-----------------------------------------------------------------------------|
B-----------------------------------------------------------------------------|
G----------------7-7-------------------7-7------------------------------------|
D--7-7-7-7--5-5--7-7-----7-7-7-7--5-5--7-7------------------------------------|
A--7-7-7-7--5-5--5-5-----7-7-7-7--5-5--5-5------------------------------------|
E--5-5-5-5--3-3----------5-5-5-5--3-3-----------------------------------------|


e-----------------------------------------------------------------------------|
B-----------------------------------------------------------------------------|
G-------------7-7-------------7-7-------------7-7-----------------------------|
D-7-7-7-7-5-5-7-7-7-7-7-7-5-5-7-7-7-7-7-7-5-5-7-7-7-7-7-7-7-7-7-7-------------|
A-7-7-7-7-5-5-5-5-7-7-7-7-5-5-5-5-7-7-7-7-5-5-5-5-7-7-7-7-7-7-7-7-------------|
E-5-5-5-5-3-3-----5-5-5-5-3-3-----5-5-5-5-3-3-----5-5-5-5-5-5-5-5-------------|
...countdown get ready for the blastoff...

e-----------------------------------------------------------------------------|
B-----------------------------------------------------------------------------|
G-7-7-7-7-5-5-----7-7-7-7-5-5-----------------5-5-----------------------------|
D-7-7-7-7-5-5-5-5-7-7-7-7-5-5-5-5-7-7-7-7-5-5-5-5-7-7-7-7-7-7-7-7-------------|
A-5-5-5-5-3-3-5-5-5-5-5-5-3-3-5-5-7-7-7-7-5-5-3-3-7-7-7-7-7-7-7-7-------------|
E-------------3-3-------------3-3-5-5-5-5-3-3-----5-5-5-5-5-5-5-5-------------|
...distinguished scientists a pesky senator...

e-----------------------------------------------------------------------------|
B-----------------------------------------------------------------------------|
G-9-9-9-9-9-9-9-9-7-7-7-7-7-7-7-7-------------5-5-----------------------------|
D-9-9-9-9-9-9-9-9-7-7-7-7-7-7-7-7-7-7-7-7-5-5-5-5-7-7-7-7-7-7-7-7-------------|
A-7-7-7-7-7-7-7-7-5-5-5-5-5-5-5-5-7-7-7-7-5-5-3-3-7-7-7-7-7-7-7-7-------------|
E---------------------------------5-5-5-5-3-3-----5-5-5-5-5-5-5-5-------------|
...all brought to you play by play...

e-----------------------------------------------------------------------------|
B-----------------------------------------------------------------------------|
G-----------7-7-7-7-7-5-5-5-5-5---------------------7-7-7-7-7-5-5-5-5-5-------|
D-7-7-7-7-7-7-7-7-7-7-5-5-5-5-5-7-7-7-7-7-7-7-7-7-7-7-7-7-7-7-5-5-5-5-5-------|
A-7-7-7-7-7-5-5-5-5-5-3-3-3-3-3-7-7-7-7-7-7-7-7-7-7-5-5-5-5-5-3-3-3-3-3-------|
E-5-5-5-5-5---------------------5-5-5-5-5-5-5-5-5-5---------------------------|
...you're going where no man has gone before...

e-----------------------------------------------------------------------------|
B-----------------------------------------------------------------------------|
G-----------------------------------------------------------------------------|
D-7-7-7-7-7-7-7-7-7-7---------------------------------------------------------|
A-7-7-7-7-7-7-7-7-7-7---------------------------------------------------------|
E-5-5-5-5-5-5-5-5-5-5---------------------------------------------------------|
...and besides you're bright...

The rest of the song basically repeats except the solo which I don't
know... if you figure it out could you e-mail it to me please....
munt@freenet.calgary.ab.ca


-----------------------------------------------------------------------------
				   Do the Slag
-----------------------------------------------------------------------------

		Cant Find E-mail Me RBM90120@aol.com

-----------------------------------------------------------------------------
				   A Commercial
-----------------------------------------------------------------------------

		Cant Find E-mail Me RBM90120@aol.com

-----------------------------------------------------------------------------
				Gone With My Wind
-----------------------------------------------------------------------------

		Cant Find E-mail Me RBM90120@aol.com

-----------------------------------------------------------------------------
				Anarchy For Sale
-----------------------------------------------------------------------------

		Cant Find E-mail Me RBM90120@aol.com

-----------------------------------------------------------------------------
			      Chickenshit Conformist
-----------------------------------------------------------------------------
Intro

e--------------------------------------------------------------|
B--------------------------------------------------------------|
G--------------------------------------------------------------|
D9-------9--7--------7--8--9---9-7-------7-8-------------------|play like 3x
A--9----------7----7--------9------7---7-----------------------|
E----7----------5-5----------7------5--------------------------|

verse
e}--------------------------------------------------------|
B}--------------------------------------------------------|
G}----------------------------------------------7---------|
D}9---9--7-------7--8--9-----9---9--7---------7----9------|  let the last note ring
A} 9------7-----7-------9-----9------7------7-------------|     {3x}
E}--7------5-5-5---------7-----7------5-5-5---------------|

second part of verse
e}---------------------------------------------------|
B]---------------------------------------------------|
G}---------------------------------------------------|  let  last note ring out
D}---------------------------------------------------|
A}-----------0-0----5-5---------------------0-0------|
E}5-5-5---5-2-2--7-7---7-7-5-5---5-5-5---5-2-2-2-5-7-|
play the first part of the verse again 1 time

chorus

e}-------------------------------------------------|
B}-------------------------------------------------|
G}-------------------------------------------------|
D}99999999-------777-------------------------------|
A}77777777-7-7-7-555-------------------------------|
E}---------5-5-5-----------------------------------|

after this u play the first part of the verse like 5 times an the second
part one and then the chorus again.

-----------------------------------------------------------------------------
			    Where Do Ya Draw the Line
-----------------------------------------------------------------------------
I just put the power chords here but if you play the whole barre you might
get a sound closer to Ray's(ie trebley).This has a rockabilly feel.
e|---------------------------------------------------------------------------|
B|---------------------------------------------------------------------------|
G|------------5-7-77775------------5-7-77775---------------------------------|
D|-7-77775-7-77775-5-55555-7-77775-------------------------------------------|
A|-7-77773-5-55553-5-55553-5-55553-------------------------------------------|
E|-5-5555-----------------3-3333---------------------------------------------|
play this a few times then
PART 2:
e|---------------------------------------------------------------------------|
B|---------------------------------------------------------------------------|
G|---------------------------------------------------------------------------|
D|-7-77775-7-77775-7-77775-7-------------------------------------------------|
A|-7-77775-7-77775-7-77775-7-------------------------------------------------|
E|-5-55553-5-55553-5-55553-5-------------------------------------------------|
PART 3(11 is eleventh fret, 10 is tenth,12 is twelth):
e|-----------------------------------------------------------------------------------|
B|-----------------------------------------------------------------------------------|
G|-----7119-797-----5799--7119-797-5797----------------------------------------------|
D|-99-----------9-77------99----------9-77--9977791010-99777944-9977791010-----------|
A|----------------------------------------------------9977791010-99777944-9977791010-|
E|----------------------------------------------------7755578-8----77555722-7755578-8|

e|---------------------------------------------------------------------------|
B|---------------------------------------------------------------------------|
G|---------------------------------------------------------------------------|
D|-1211109-1212-11-109-------------------------------------------------------|
A|-1211109-1212-11-109-------------------------------------------------------|
E|-109---8-7-1010-9----8-7---------------------------------------------------|
TO CUT A LONG STORY SHORT straight after part 4 there is another chord
progression but you can work the strumming out(if not find a nirvana song to
play and learn to sing along,you might impress a girl,aaahhhh)these are the
chords: D C D e D C Dx2 then HIGHER G F G A G F G G F G A# A
then the PART 1 shape is played 2 frets higher(beginning on B instead of A)
and the next progression(the oh oh oh oh bit) is
D e F# F# e D Bx3 D
Finally play part 2 but move it up 2 frets.
-----------------------------------------------------------------------------
				Potshot Heard
-----------------------------------------------------------------------------

		Cant Find E-mail Me RBM90120@aol.com

-----------------------------------------------------------------------------
				   D.M.S.O.
-----------------------------------------------------------------------------

		Cant Find E-mail Me RBM90120@aol.com

-----------------------------------------------------------------------------
			         Lie Detector
-----------------------------------------------------------------------------

		Cant Find E-mail Me RBM90120@aol.com
Comments