Dead Kennedys - At My Job Chords & Tabs

 

At My Job Chords & Tabs

Dead Kennedys Chords & Tabs

Version: 1 Type: Tab 0 ratings
1 star 2 stars 3 stars 4 stars 5 stars
comments

At My Job Tab

   
AT MY JOB, Dead Kennedys. Written by East Bay Ray.
Tabbed by Jake Strange (aka: scumfuc) for guitar.
I've covered this song before & it sounds good. I know
of no one or nowhere else who has tab for this, so I'll
attempt to submit it here & hope someone finds it usefull.
Email: jakestrange@chaosmagic.com
Oh, yeah, this is along one, so if you try this one out, try it
playing  along w/ the CD.


Opening Part:
e|----------------------------------------------------|
B|----------------------------------------------------|
G|--------4-----------4------------4--------------4---|
D|---4-4--4------4-4--4-------4-4--4---------4-4--4---|
A|---2-2--2------2-2--2-------2-2--2---------2-2--2---|
E|----------------------------------------------------|
   pm---|       pm--|       pm---|         pm---|


Verse Riff: (high notes in parentheses are played by 2nd guitar)
e|---------------------------------------------------------|
B|--------(6)----------(6)-----------(6)-------------------|
G|--------(4)----------(4)-----------(4)------9--7--5--7---|
D|---4-4---4------4--4--4--------4-4--4-------9--7--5--7---|
A|---2-2---2------2--2--2--------2-2--2-------7--5--3--5---|
E|---------------------------------------------------------|

Chorus:
e|----------------------------------------------|
B|------10--------10--------10------------------|
G|--10---9---10----9----10---9-----9--7--5--7---|
D|--10---7---10----7----10---7-----9--7--5--7---|
A|---8--------8----------8---------7--5--3--5---|
E|----------------------------------------------|

Post Chorus:
e|------------------------------------------|
B|------------------------------------------|
G|-----7--7-----6--------10-10-----8---9----|
D|--7--7--7--5--6-----8--10-10-----8---9----|
A|--7--5--5--5--4-----8---8--8-----6---7----|
E|--5--------3--------6---------------------|
[ Tab from: http://www.guitartabs.cc/tabs/d/dead_kennedys/at_my_job_tab.html ]
1st Solo:
e|-----12--11--14--------10--9----------12--11--14--12------12--11--14---
B|--9-----------------9---------9----9------------------7h9--------------
G|-----------------------------------------------------------------------
D|-----------------------------------------------------------------------
A|-----------------------------------------------------------------------
E|--------------------------------------------------------------continued...

e|--11--10------12--11---10--11--10-----------|
B|-----------9-----------------------13--12---|
G|--------------------------------------------|
D|--------------------------------------------|
A|--------------------------------------------|
E|--------------------------------------------|

2nd solo:
e|-----11--10--13--11--------11--10--13---|
B|--8---------------------8---------------|
G|----------------------------------------|
D|----------------------------------------|
A|----------------------------------------|
E|----------------------------------------|

3rd Solo:
e|-----11--10----10--11--10--11-----------11--10-----10--11--10--------|
B|--9----------------------------------8-------------------------12----|
G|---------------------------------------------------------------------|
D|---------------------------------------------------------------------|
A|---------------------------------------------------------------------|
E|---------------------------------------------------------------------|

OK, now here's the order in which to play all of the above...
Opening Riff
Verse Riff (8x)
Chorus (3x)
Post-chorus
Verse Riff (5x)
Chorus (3x)
Post-chorus
Verse Riff (1x)
F  D# (3x) w/ 1st solo
Post-chorus
Verse riff (1x) w/ 2nd solo
Post-chorus
Verse Riff (1x) w/ 3rd solo
Verse Riff (3x)
Chorus (3x)
Post-chorus
Chorus (2x)
Post-chorus (2x)
End


Note: the end of the song is basically the low & high notes
      that were used in the verse riff strummed as one chord.
Comments