Dead Kennedys - A Child And His Lawnmower Chords & Tabs

 

A Child And His Lawnmower Chords & Tabs

Dead Kennedys Chords & Tabs

Version: 1 Type: Bass Tab 0 ratings
1 star 2 stars 3 stars 4 stars 5 stars
comments

A Child And His Lawnmower Bass Tab

   
This is the (Correct) Bass tab for "A Child and his Lawnmower"
by the Dead Kennedy's from "Give me Convience or give me Death"

Last time I looked all the other tab for this was wrong.
This is the correct tab (for the intro anyway).

riff 1 (intro)
G-----------------------------
D-5--5-2-----------2----------	x3
A--------5--5-2-3----5--5-5-5-
E-----------------------------

G-----------------------------
D-5--5-2----------------------
A--------5--5-3-2____________-
E-----------------------------
[ Tab from: http://www.guitartabs.cc/tabs/d/dead_kennedys/a_child_and_his_lawnmower_btab.html ]
riff 2
G------------------
D------------------  x6
A-0222022202225353-
E------------------

riff 3
G----------------------------------
D----------------------------------
A-55555555333333335555555533333333-
E----------------------------------

riff 2 x4?
riff 3
riff 2 x?

I'm not sure about riff 3 but the rest is right. I've tried to tab out
the rhythm but it maybe wrong. (-55-) these are 16ths
                               (-5-5-) these are 8ths
                               (-5--5-) these are 4ths
 The intro to this is definitely correct.
 Remember, I may change my mind but I'm always right. (funnyhaha)



Comments