Dead Elizabeth - Beauty In Details Chords & Tabs

 

Beauty In Details Chords & Tabs

Dead Elizabeth Chords & Tabs

Version: 1 Type: Tab 0 ratings
1 star 2 stars 3 stars 4 stars 5 stars
comments

Beauty In Details Tab

   
----------------------------------------------------------------------------
		      Beauty in Details - Dead Elizabeth
----------------------------------------------------------------------------
Tabbed by: SuperHax0r88
Email: sagarasanosuke6988@yahoo.com

Lol, well the tab before this one sucked so bad I just had to fix it up a little.
Here's my version of it. Of course, this is just the bare bones of the song, I
didn't include the syncing or anything like that.

Travis SUCKS :O

Tuning:
D
A
F
C
G
C

Intro:
D|-------------------------------------------------------------------------|
A|-------------------------------------------------------------------------|
F|-------------------------------------------------------------------------|
C|-------------------------------------------------------------------------|
G|-0-5-7-0-5-7-7/8-5-0-5-7-0-/10-8-7h8p7-5-0-5-7-0-5-7-7/8-0-5-7-0-8-7-----|
C|-------------------------------------------------------------------------|
[ Tab from: http://www.guitartabs.cc/tabs/d/dead_elizabeth/beauty_in_details_tab.html ]
D|-------------------------------------------------------------------------|
A|-------------------------------------------------------------------------|
F|-------------------------------------------------------------------------|
C|-------------------------------------------------------------------------|
G|5h7p5-4-0-5-7-0-5-7-7/8-5-0-5-7-0-/10-8-7h8p7-5-0-5-7p5-0-5-7-7/8-0-5-7-0|
C|-------------------------------------------------------------------------|

D|-------------------------------------------------------------------------|
A|-------------------------------------------------------------------------|
F|-------------------------------------------------------------------------|
C|-------------------------------------------------------------------------|
G|8-7-5h7p5-4--------------------------------------------------------------|
C|-------------------------------------------------------------------------|

Verse:
Guitar 1 [Tremolo Picking]
D|-------------------------------------------------------------------------|
A|-------------------------------------------------------------------------|
F|-------------------------------------------------------------------------|
C|-------------------------------------------------------------------------|
G|-0-5-7-0-5-7-8-5-0-5-7-0-10-8-7-5-0-5-7-0-5-7-8-5-0-5-7-0-8-7-5-4--------|
C|-------------------------------------------------------------------------|

Guitar 2

D|------------------------------------------------------|
A|------------------------------------------------------|
F|------------------------------------------------------|
C|-0-0--0-0---0-0--0-0--x-x-10-8-8--8-8--8-7-7--7-7--12\|
G|-0-0--0-0---0-0--0-0--x-x-10-8-8--8-8--8-7-7--7-7--12\|
C|-0-0--0-0---0-0--0-0--x-x-10-8-8--8-8--8-7-7--7-7--12\|

| /  slide up
| \  slide down
| h  hammer-on
| p  pull-off
| ~  vibrato
| +  harmonic
| x  Mute note
============================================================================
Comments