Dead Cat Bounce - Midget Song Chords & Tabs

 

Midget Song Chords & Tabs

Dead Cat Bounce Chords & Tabs

Version: 1 Type: Bass Tab 0 ratings
1 star 2 stars 3 stars 4 stars 5 stars
comments

Midget Song Bass Tab

   
-------------------------------------------------------------------------------
                             Midget Song - Dead Cat Bounce
-------------------------------------------------------------------------------
Tabbed by: Jay
E-mail: explorer57@rocketmail.com (feedback appreciated :))
Tuning: standard

Not all the note counts are accurate but listen to the song and you'll get it

Intro:
"I dunno why but when I see a midget.."
G|-----------------------------------------------------------------------------|
D|-----------------------------------------------------------------------------|
A|-0-------------0-------------------------------------------------------------| 
E|---3--2------------3---2-----------------------------------------------------|

riff1
"And who would stop me?.."
G|----5-4-5-----9-7-9------10-9-10-----7-5-7-----------------------------------|
D|-----------------------------------------------------------------------------|
A|-0---------3----------8-----------5------------------------------------------| 
E|-----------------------------------------------------------------------------|

riff2
"And maybe its sick.."
G|-------------------------------------------------2-2-2-2-0-0-0-0-------------|
D|-3-3-3-3-3-3-3-3-----------------2-2-2-2-2-2-2-2-----------------------------|
A|-----------------3-3-3-3-3-3-3-3---------------------------------------------| 
E|-----------------------------------------------------------------------------|
[ Tab from: http://www.guitartabs.cc/tabs/d/dead_cat_bounce/midget_song_btab.html ]
G|-----------------------------------------------------------------------------|
D|-3-3-3-3-3-3-3-3-----------------2-------------------------------------------|
A|-----------------3-3-3-3-3-3-3-3---------------------------------------------| 
E|-----------------------------------------------------------------------------|

repeat riff1

repeat riff2

"Would midgets take up arms and fight.."
G|-----------------------------------------------------------------------------|
D|-3--------5-------5-5-5-5-5-5-5----------------------------------------------|
A|-----------------------------------------------------------------------------| 
E|-----------------------------------------------------------------------------|

 "This summer.." 
G|-----------------------------------------------------------------------------|
D|-----------------------------------------------------------------------------|
A|-12/-0-0-0-0-0-0-0-0-0-0-3-3-3-3-3-3-3-3-0-0-0-0-0-0-0-0-0-0-----------------| 
E|-----------------------------------------------------------------------------|

ending:
G|-----------2-2-2-------------------------------------------------------------|
D|-----------------------------------------------------------------------------|
A|-12/-0-0-0-------0-----------------------------------------------------------| 
E|-----------------------------------------------------------------------------|


| /  slide up
| \  slide down
| h  hammer-on
| p  pull-off
| ~  vibrato
| +  harmonic
| x  Mute note
===============================================================================
Comments